  0
SECTION
  2
HEADER
  9
$ACADVER
  1
AC1009
  9
$INSBASE
 10
0.0
 20
0.0
 30
0.0
  9
$EXTMIN
 10
-0.0905735849501071
 20
-0.0640419287501573
 30
-0.0000000000112498
  9
$EXTMAX
 10
5940.0906565708483
 20
4200.0641006056521
 30
0.0000000000002956
  9
$LIMMIN
 10
109.65118815104159
 20
82.197222222222209
  9
$LIMMAX
 10
147.89037000868041
 20
96.502808973524296
  9
$ORTHOMODE
 70
     1
  9
$REGENMODE
 70
     1
  9
$FILLMODE
 70
     1
  9
$QTEXTMODE
 70
     0
  9
$MIRRTEXT
 70
     1
  9
$DRAGMODE
 70
     2
  9
$LTSCALE
 40
1.0
  9
$OSMODE
 70
   160
  9
$ATTMODE
 70
     1
  9
$TEXTSIZE
 40
0.0
  9
$TRACEWID
 40
0.05
  9
$TEXTSTYLE
  7
STANDARD
  9
$CLAYER
  8
0
  9
$CELTYPE
  6
BYLAYER
  9
$CECOLOR
 62
   256
  9
$DIMSCALE
 40
2.0
  9
$DIMASZ
 40
35.0
  9
$DIMEXO
 40
0.0625
  9
$DIMDLI
 40
10.0
  9
$DIMRND
 40
0.0
  9
$DIMDLE
 40
0.0
  9
$DIMEXE
 40
0.18
  9
$DIMTP
 40
0.0
  9
$DIMTM
 40
0.0
  9
$DIMTXT
 40
35.0
  9
$DIMCEN
 40
0.09
  9
$DIMTSZ
 40
0.0
  9
$DIMTOL
 70
     0
  9
$DIMLIM
 70
     0
  9
$DIMTIH
 70
     0
  9
$DIMTOH
 70
     0
  9
$DIMSE1
 70
     0
  9
$DIMSE2
 70
     0
  9
$DIMTAD
 70
     3
  9
$DIMZIN
 70
     0
  9
$DIMBLK
  1
OPEN
  9
$DIMASO
 70
     1
  9
$DIMSHO
 70
     1
  9
$DIMPOST
  1

  9
$DIMAPOST
  1

  9
$DIMALT
 70
     0
  9
$DIMALTD
 70
     2
  9
$DIMALTF
 40
25.399999999999999
  9
$DIMLFAC
 40
1.0
  9
$DIMTOFL
 70
     1
  9
$DIMTVP
 40
0.0
  9
$DIMTIX
 70
     0
  9
$DIMSOXD
 70
     0
  9
$DIMSAH
 70
     0
  9
$DIMBLK1
  1

  9
$DIMBLK2
  1

  9
$DIMSTYLE
  2
STANDARD
  9
$DIMCLRD
 70
     0
  9
$DIMCLRE
 70
     0
  9
$DIMCLRT
 70
     0
  9
$DIMTFAC
 40
1.0
  9
$DIMGAP
 40
10.0
  9
$LUNITS
 70
     2
  9
$LUPREC
 70
     4
  9
$SKETCHINC
 40
0.1
  9
$FILLETRAD
 40
0.0
  9
$AUNITS
 70
     0
  9
$AUPREC
 70
     0
  9
$MENU
  1
acad
  9
$ELEVATION
 40
0.0
  9
$PELEVATION
 40
0.0
  9
$THICKNESS
 40
0.0
  9
$LIMCHECK
 70
     0
  9
$BLIPMODE
 70
     0
  9
$CHAMFERA
 40
0.0
  9
$CHAMFERB
 40
0.0
  9
$SKPOLY
 70
     0
  9
$TDCREATE
 40
2456743.5973998029
  9
$TDUPDATE
 40
2458249.4365222799
  9
$TDINDWG
 40
1.3106964583
  9
$TDUSRTIMER
 40
2456743.4779862971
  9
$USRTIMER
 70
     1
  9
$ANGBASE
 50
0.0
  9
$ANGDIR
 70
     0
  9
$PDMODE
 70
     1
  9
$PDSIZE
 40
0.0
  9
$PLINEWID
 40
0.0
  9
$COORDS
 70
     2
  9
$SPLFRAME
 70
     0
  9
$SPLINETYPE
 70
     6
  9
$SPLINESEGS
 70
     8
  9
$ATTDIA
 70
     0
  9
$ATTREQ
 70
     1
  9
$HANDLING
 70
     1
  9
$HANDSEED
  5
A7FF
  9
$SURFTAB1
 70
     6
  9
$SURFTAB2
 70
     6
  9
$SURFTYPE
 70
     6
  9
$SURFU
 70
     6
  9
$SURFV
 70
     6
  9
$UCSNAME
  2

  9
$UCSORG
 10
979.94756024367962
 20
-2980.9795932347261
 30
0.0
  9
$UCSXDIR
 10
1.0
 20
0.0
 30
0.0
  9
$UCSYDIR
 10
0.0
 20
1.0
 30
0.0
  9
$PUCSNAME
  2

  9
$PUCSORG
 10
0.0
 20
0.0
 30
0.0
  9
$PUCSXDIR
 10
1.0
 20
0.0
 30
0.0
  9
$PUCSYDIR
 10
0.0
 20
1.0
 30
0.0
  9
$USERI1
 70
     0
  9
$USERI2
 70
     0
  9
$USERI3
 70
     0
  9
$USERI4
 70
     0
  9
$USERI5
 70
     0
  9
$USERR1
 40
0.0
  9
$USERR2
 40
0.0
  9
$USERR3
 40
0.0
  9
$USERR4
 40
0.0
  9
$USERR5
 40
0.0
  9
$WORLDVIEW
 70
     1
  9
$SHADEDGE
 70
     3
  9
$SHADEDIF
 70
    70
  9
$TILEMODE
 70
     1
  9
$MAXACTVP
 70
    16
  9
$PLIMCHECK
 70
     0
  9
$PEXTMIN
 10
1.4045303448098121
 20
0.286054661281014
 30
-0.0015258207003583
  9
$PEXTMAX
 10
292.10920510477422
 20
204.1686947933903
 30
0.0000000349246037
  9
$PLIMMIN
 10
-1.7590478837812491
 20
-2.8954569754587842
  9
$PLIMMAX
 10
295.27278195020318
 20
207.07787066125999
  9
$UNITMODE
 70
     0
  9
$VISRETAIN
 70
     0
  9
$PLINEGEN
 70
     1
  9
$PSLTSCALE
 70
     0
  0
ENDSEC
  0
SECTION
  2
TABLES
  0
TABLE
  2
VPORT
 70
     1
  0
VPORT
  2
*ACTIVE
 70
     0
 10
0.0
 20
0.0
 11
1.0
 21
1.0
 12
2970.0000414929491
 22
2100.000029338451
 13
0.0
 23
0.0
 14
1.0
 24
1.0
 15
0.0
 25
0.0
 16
0.0
 26
0.0
 36
1.0
 17
0.0
 27
0.0
 37
0.0
 40
4228.4118337299215
 41
2.1516853932584259
 42
50.0
 43
0.0
 44
0.0
 50
0.0
 51
0.0
 71
     0
 72
   100
 73
     1
 74
     1
 75
     0
 76
     0
 77
     0
 78
     0
  0
ENDTAB
  0
TABLE
  2
LTYPE
 70
     2
  0
LTYPE
  2
CONTINUOUS
 70
     0
  3
Solid line
 72
    65
 73
     0
 40
0.0
  0
LTYPE
  2
PHANTOM2
 70
     0
  3
___ _ _ ___ _ _ ___ _ _ ___ _ _
 72
    65
 73
     6
 40
1.25
 49
0.625
 49
-0.125
 49
0.125
 49
-0.125
 49
0.125
 49
-0.125
  0
ENDTAB
  0
TABLE
  2
LAYER
 70
     4
  0
LAYER
  2
0
 70
     0
 62
     7
  6
CONTINUOUS
  0
LAYER
  2
DEFPOINTS
 70
     0
 62
     7
  6
CONTINUOUS
  0
LAYER
  2
用紙枠
 70
     0
 62
     7
  6
CONTINUOUS
  0
LAYER
  2
図面枠
 70
     0
 62
     7
  6
CONTINUOUS
  0
ENDTAB
  0
TABLE
  2
STYLE
 70
     2
  0
STYLE
  2
STANDARD
 70
     0
 40
0.0
 41
1.0
 50
0.0
 71
     0
 42
0.0
  3
txt.shx
  4
bigfont.shx
  0
STYLE
  2
ANNOTATIVE
 70
     0
 40
0.0
 41
1.0
 50
0.0
 71
     0
 42
0.2
  3
txt
  4

  0
ENDTAB
  0
TABLE
  2
VIEW
 70
     0
  0
ENDTAB
  0
TABLE
  2
UCS
 70
     0
  0
ENDTAB
  0
TABLE
  2
APPID
 70
    20
  0
APPID
  2
ACAD
 70
     0
  0
APPID
  2
ACADANNOTATIVE
 70
     0
  0
APPID
  2
ACAD_EXEMPT_FROM_CAD_STANDARDS
 70
     0
  0
APPID
  2
ACAD_DSTYLE_DIMJAG
 70
     0
  0
APPID
  2
ACAD_DSTYLE_DIMTALN
 70
     0
  0
APPID
  2
ACAD_NAV_VCDISPLAY
 70
     0
  0
APPID
  2
ACAD_PSEXT
 70
     0
  0
APPID
  2
ACAECLAYERSTANDARD
 70
     0
  0
APPID
  2
ACCMTRANSPARENCY
 70
     0
  0
APPID
  2
ACADANNOAV
 70
     0
  0
APPID
  2
ACADANNOPO
 70
     0
  0
APPID
  2
ACAD_MLEADERVER
 70
     0
  0
APPID
  2
ACADSTRINGINFO
 70
     0
  0
APPID
  2
ACAD_DSTYLE_DIMBREAK
 70
     0
  0
APPID
  2
PLOTTRANSPARENCY
 70
     0
  0
APPID
  2
ACDBDYNAMICBLOCKGUID
 70
     0
  0
APPID
  2
ACAUTHENVIRON
 70
     0
  0
APPID
  2
ACLAYERTOOLS
 70
     0
  0
APPID
  2
ACDBDYNAMICBLOCKTRUENAME
 70
     0
  0
APPID
  2
ADESKUNDERLAYLAYEROVERRIDEDATA
 70
     0
  0
ENDTAB
  0
TABLE
  2
DIMSTYLE
 70
     2
  0
DIMSTYLE
  2
STANDARD
 70
     0
  3

  4

  5

  6

  7

 40
2.0
 41
35.0
 42
0.0625
 43
10.0
 44
0.18
 45
0.0
 46
0.0
 47
0.0
 48
0.0
140
35.0
141
0.09
142
0.0
143
25.399999999999999
144
1.0
145
0.0
146
1.0
147
10.0
 71
     0
 72
     0
 73
     0
 74
     0
 75
     0
 76
     0
 77
     3
 78
     0
170
     0
171
     2
172
     1
173
     0
174
     0
175
     0
176
     0
177
     0
178
     0
  0
DIMSTYLE
  2
ANNOTATIVE
 70
     0
  3

  4

  5

  6

  7

 40
1.0
 41
0.18
 42
0.0625
 43
0.38
 44
0.18
 45
0.0
 46
0.0
 47
0.0
 48
0.0
140
0.18
141
0.09
142
0.0
143
25.399999999999999
144
1.0
145
0.0
146
1.0
147
0.09
 71
     0
 72
     0
 73
     1
 74
     1
 75
     0
 76
     0
 77
     0
 78
     0
170
     0
171
     2
172
     0
173
     0
174
     0
175
     0
176
     0
177
     0
178
     0
  0
ENDTAB
  0
ENDSEC
  0
SECTION
  2
BLOCKS
  0
BLOCK
  8
0
  2
$MODEL_SPACE
 70
     0
 10
0.0
 20
0.0
 30
0.0
  3
$MODEL_SPACE
  1

  0
ENDBLK
  5
A77E
  8
0
  0
BLOCK
 67
     1
  8
0
  2
$PAPER_SPACE
 70
     0
 10
0.0
 20
0.0
 30
0.0
  3
$PAPER_SPACE
  1

  0
ENDBLK
  5
A77A
 67
     1
  8
0
  0
BLOCK
  8
0
  2
_OPEN
 70
     0
 10
0.0
 20
0.0
 30
0.0
  3
_OPEN
  1

  0
LINE
  5
AB0
  8
0
  6
BYBLOCK
 62
     0
 10
-1.0
 20
0.1666666666666666
 30
0.0
 11
0.0
 21
0.0
 31
0.0
  0
LINE
  5
AB1
  8
0
  6
BYBLOCK
 62
     0
 10
-1.0
 20
-0.1666666666666666
 30
0.0
 11
0.0
 21
0.0
 31
0.0
  0
LINE
  5
AB2
  8
0
  6
BYBLOCK
 62
     0
 10
0.0
 20
0.0
 30
0.0
 11
-1.0
 21
0.0
 31
0.0
  0
ENDBLK
  5
AB4
  8
0
  0
BLOCK
  8
0
  2
_CLOSED
 70
     0
 10
0.0
 20
0.0
 30
0.0
  3
_CLOSED
  1

  0
LINE
  5
AB6
  8
0
  6
BYBLOCK
 62
     0
 10
-1.0
 20
0.1666666666666666
 30
0.0
 11
0.0
 21
0.0
 31
0.0
  0
LINE
  5
AB7
  8
0
  6
BYBLOCK
 62
     0
 10
0.0
 20
0.0
 30
0.0
 11
-1.0
 21
-0.1666666666666666
 31
0.0
  0
LINE
  5
AB8
  8
0
  6
BYBLOCK
 62
     0
 10
-1.0
 20
0.1666666666666666
 30
0.0
 11
-1.0
 21
-0.1666666666666666
 31
0.0
  0
LINE
  5
AB9
  8
0
  6
BYBLOCK
 62
     0
 10
0.0
 20
0.0
 30
0.0
 11
-1.0
 21
0.0
 31
0.0
  0
ENDBLK
  5
ABB
  8
0
  0
BLOCK
  8
0
  2
*U4
 70
     1
 10
0.0
 20
0.0
 30
0.0
  3
*U4
  1

  0
TEXT
  5
A48F
  8
0
 10
2137.0
 20
1721.991030279695
 30
0.0
 40
70.0
  1
1650
 50
90.0
  0
ENDBLK
  5
A491
  8
0
  0
BLOCK
  8
0
  2
*U5
 70
     1
 10
0.0
 20
0.0
 30
0.0
  3
*U5
  1

  0
TEXT
  5
A493
  8
0
 10
2549.920454545455
 20
2872.3887575524232
 30
0.0
 40
70.0
  1
40
  0
ENDBLK
  5
A495
  8
0
  0
BLOCK
  8
0
  2
*U6
 70
     1
 10
0.0
 20
0.0
 30
0.0
  3
*U6
  1

  0
TEXT
  5
A497
  8
0
 10
1484.642045454545
 20
2872.3887575524232
 30
0.0
 40
70.0
  1
990
  0
ENDBLK
  5
A499
  8
0
  0
ENDSEC
  0
SECTION
  2
ENTITIES
  0
LINE
  5
FCA
  8
図面枠
 10
5740.0
 20
3786.777515104845
 30
0.0
 11
400.0
 21
3786.777515104845
 31
0.0
  0
TEXT
  5
1230
  8
図面枠
 10
500.0
 20
3836.777515104845
 30
0.0
 40
100.0
  1
太陽電池モジュール　TGX-280PM-WHT-J
 11
500.0
 21
3886.777515104845
 31
0.0
 73
     2
  0
LINE
  5
9B05
  8
0
 10
1117.0
 20
1038.8887575524191
 30
0.0
 11
1117.0
 21
2615.8887575524232
 31
0.0
  0
LINE
  5
9B06
  8
0
 10
1091.0
 20
1370.5187893786469
 30
0.0
 11
1091.0
 21
1494.1687193489579
 31
0.0
  0
LINE
  5
9B07
  8
0
 10
1169.0
 20
1038.8887575524191
 30
0.0
 11
1169.0
 21
2615.8887575524232
 31
0.0
  0
LINE
  5
9B08
  8
0
 10
1221.0
 20
1038.8887575524191
 30
0.0
 11
1221.0
 21
2615.8887575524232
 31
0.0
  0
LINE
  5
9B09
  8
0
 10
1273.0
 20
1038.8887575524191
 30
0.0
 11
1273.0
 21
2615.8887575524232
 31
0.0
  0
LINE
  5
9B0A
  8
0
 10
1325.0
 20
1038.8887575524191
 30
0.0
 11
1325.0
 21
2615.8887575524232
 31
0.0
  0
LINE
  5
9B0B
  8
0
 10
1377.0
 20
1038.8887575524191
 30
0.0
 11
1377.0
 21
2615.8887575524232
 31
0.0
  0
LINE
  5
9B0D
  8
0
 10
1247.0
 20
1056.0187893786449
 30
0.0
 11
1247.0
 21
2598.7587257261971
 31
0.0
  0
LINE
  5
9B0E
  8
0
 10
1403.0
 20
1054.6281462385141
 30
0.0
 11
1403.0
 21
2600.1493688663259
 31
0.0
  0
LINE
  5
9BBF
  8
0
 10
1432.0
 20
1038.8887575524191
 30
0.0
 11
1432.0
 21
2615.8887575524232
 31
0.0
  0
LINE
  5
9BC0
  8
0
 10
1484.0
 20
1038.8887575524191
 30
0.0
 11
1484.0
 21
2615.8887575524232
 31
0.0
  0
LINE
  5
9BC1
  8
0
 10
1536.0
 20
1038.8887575524191
 30
0.0
 11
1536.0
 21
2615.8887575524232
 31
0.0
  0
LINE
  5
9BC2
  8
0
 10
1562.0
 20
1056.090839747681
 30
0.0
 11
1562.0
 21
2598.686750802573
 31
0.0
  0
LINE
  5
9BC3
  8
0
 10
1588.0
 20
1038.8887575524191
 30
0.0
 11
1588.0
 21
2615.8887575524232
 31
0.0
  0
LINE
  5
9BC4
  8
0
 10
1640.0
 20
1038.8887575524191
 30
0.0
 11
1640.0
 21
2615.8887575524218
 31
0.0
  0
LINE
  5
9BC5
  8
0
 10
1692.0
 20
1038.8887575524191
 30
0.0
 11
1691.9999999999991
 21
2615.8887575524218
 31
0.0
  0
LINE
  5
9BC6
  8
0
 10
1718.0
 20
1054.5573560872999
 30
0.0
 11
1718.0
 21
2600.22015901754
 31
0.0
  0
LINE
  5
9BC7
  8
0
 10
1406.0
 20
1054.5316923514761
 30
0.0
 11
1406.0
 21
2600.2458227533639
 31
0.0
  0
LINE
  5
9BD1
  8
0
 10
1747.0
 20
1038.8887575524191
 30
0.0
 11
1747.0
 21
2615.8887575524218
 31
0.0
  0
LINE
  5
9BD2
  8
0
 10
1799.0
 20
1038.8887575524191
 30
0.0
 11
1798.9999999999991
 21
2615.8887575524218
 31
0.0
  0
LINE
  5
9BD3
  8
0
 10
1851.0
 20
1038.8887575524191
 30
0.0
 11
1850.9999999999991
 21
2615.8887575524218
 31
0.0
  0
LINE
  5
9BD4
  8
0
 10
1876.9999999999991
 20
1056.018789378644
 30
0.0
 11
1877.0
 21
2598.7587257261971
 31
0.0
  0
LINE
  5
9BD5
  8
0
 10
1903.0
 20
1038.8887575524191
 30
0.0
 11
1903.0
 21
2615.8887575524218
 31
0.0
  0
LINE
  5
9BD6
  8
0
 10
1955.0
 20
1038.8887575524191
 30
0.0
 11
1955.0
 21
2615.8887575524218
 31
0.0
  0
LINE
  5
9BD7
  8
0
 10
2007.0
 20
1038.8887575524191
 30
0.0
 11
2007.0
 21
2615.8887575524218
 31
0.0
  0
LINE
  5
9BD9
  8
0
 10
1721.0
 20
1054.6036672750961
 30
0.0
 11
1721.0
 21
2600.1738478297461
 31
0.0
  0
LINE
  5
9BFB
  8
0
 10
1106.838247064235
 20
2146.8887575524241
 30
0.0
 11
2017.161752935765
 21
2146.8887575524241
 31
0.0
  0
LINE
  5
9BFC
  8
0
 10
1106.83983137306
 20
2143.8887575524218
 30
0.0
 11
2017.16016862694
 21
2143.8887575524218
 31
0.0
  0
LINE
  5
9BFD
  8
0
 10
1106.83983137306
 20
2301.8887575524218
 30
0.0
 11
2017.16016862694
 21
2301.8887575524218
 31
0.0
  0
LINE
  5
9BFE
  8
0
 10
1106.838247064235
 20
2304.8887575524218
 30
0.0
 11
2017.161752935765
 21
2304.8887575524218
 31
0.0
  0
LINE
  5
9BFF
  8
0
 10
1106.8398313730611
 20
2459.8887575524218
 30
0.0
 11
2017.1601686269389
 21
2459.8887575524218
 31
0.0
  0
LINE
  5
9C00
  8
0
 10
1106.8382470642359
 20
2462.8887575524218
 30
0.0
 11
2017.1617529357641
 21
2462.8887575524218
 31
0.0
  0
LINE
  5
9C03
  8
0
 10
1106.83983137306
 20
1983.888757552422
 30
0.0
 11
2017.160168626941
 21
1983.888757552422
 31
0.0
  0
LINE
  5
9C04
  8
0
 10
1106.838247064235
 20
1986.888757552422
 30
0.0
 11
2017.161752935765
 21
1986.888757552422
 31
0.0
  0
LINE
  5
9C05
  8
0
 10
1106.8398313730611
 20
1825.888757552422
 30
0.0
 11
2017.16016862694
 21
1825.888757552422
 31
0.0
  0
LINE
  5
9C06
  8
0
 10
1106.8382470642359
 20
1828.8887575524211
 30
0.0
 11
2017.1617529357641
 21
1828.8887575524211
 31
0.0
  0
LINE
  5
9C07
  8
0
 10
1106.8398313730611
 20
1667.888757552422
 30
0.0
 11
2017.16016862694
 21
1667.888757552422
 31
0.0
  0
LINE
  5
9C08
  8
0
 10
1106.8382470642371
 20
1670.888757552422
 30
0.0
 11
2017.1617529357641
 21
1670.888757552422
 31
0.0
  0
LINE
  5
9C09
  8
0
 10
1106.839831373059
 20
1509.8887575524211
 30
0.0
 11
2017.1601686269421
 21
1509.8887575524211
 31
0.0
  0
LINE
  5
9C0A
  8
0
 10
1106.8382470642341
 20
1512.888757552422
 30
0.0
 11
2017.161752935765
 21
1512.888757552422
 31
0.0
  0
LINE
  5
9C0C
  8
0
 10
1106.7656476416951
 20
1354.888757552422
 30
0.0
 11
2017.2343523583049
 21
1354.888757552422
 31
0.0
  0
LINE
  5
9C8A
  8
0
 10
2045.0
 20
1014.388757552422
 30
0.0
 11
2057.0
 21
1002.388757552422
 31
0.0
  0
LINE
  5
9C8B
  8
0
 10
1079.0
 20
1014.388757552422
 30
0.0
 11
1067.0
 21
1002.388757552422
 31
0.0
  0
LINE
  5
9C8C
  8
0
 10
1079.0
 20
2640.3887575524218
 30
0.0
 11
1067.0
 21
2652.3887575524232
 31
0.0
  0
LINE
  5
9C8D
  8
0
 10
2045.0
 20
2640.3887575524218
 30
0.0
 11
2057.0
 21
2652.3887575524232
 31
0.0
  0
LINE
  5
9E8D
  8
0
 10
2353.5
 20
1002.388757552422
 30
0.0
 11
2393.5
 21
1002.388757552422
 31
0.0
  0
LINE
  5
9E8F
  8
0
 10
2393.5
 20
2652.3887575524232
 30
0.0
 11
2353.5
 21
2652.3887575524232
 31
0.0
  0
LINE
  5
9E90
  8
0
 10
2353.5
 20
2652.3887575524232
 30
0.0
 11
2353.5
 21
1002.388757552422
 31
0.0
  0
LINE
  5
9E91
  8
0
 10
1744.0
 20
2635.8887575524218
 30
0.0
 11
2010.0
 21
2635.8887575524218
 31
0.0
  0
LINE
  5
9E92
  8
0
 10
2010.0
 20
2635.8887575524218
 30
0.0
 11
2010.0
 21
2625.8887575524218
 31
0.0
  0
LINE
  5
9E93
  8
0
 10
2010.0
 20
2625.8887575524218
 30
0.0
 11
1744.0
 21
2625.8887575524218
 31
0.0
  0
LINE
  5
9E94
  8
0
 10
1744.0
 20
2625.8887575524218
 30
0.0
 11
1744.0
 21
2635.8887575524218
 31
0.0
  0
LINE
  5
9E95
  8
0
 10
1429.0
 20
2635.8887575524218
 30
0.0
 11
1695.0
 21
2635.8887575524218
 31
0.0
  0
LINE
  5
9E96
  8
0
 10
1695.0
 20
2635.8887575524218
 30
0.0
 11
1695.0
 21
2625.8887575524218
 31
0.0
  0
LINE
  5
9E97
  8
0
 10
1695.0
 20
2625.8887575524218
 30
0.0
 11
1429.0
 21
2625.8887575524218
 31
0.0
  0
LINE
  5
9E98
  8
0
 10
1429.0
 20
2625.8887575524218
 30
0.0
 11
1429.0
 21
2635.8887575524218
 31
0.0
  0
LINE
  5
9E99
  8
0
 10
1166.0
 20
2635.8887575524218
 30
0.0
 11
1380.0
 21
2635.8887575524218
 31
0.0
  0
LINE
  5
9E9A
  8
0
 10
1380.0
 20
2635.8887575524218
 30
0.0
 11
1380.0
 21
2625.8887575524218
 31
0.0
  0
LINE
  5
9E9B
  8
0
 10
1380.0
 20
2625.8887575524218
 30
0.0
 11
1166.0
 21
2625.8887575524218
 31
0.0
  0
LINE
  5
9E9C
  8
0
 10
1166.0
 20
2625.8887575524218
 30
0.0
 11
1166.0
 21
2635.8887575524218
 31
0.0
  0
LINE
  5
9E9D
  8
0
 10
1744.0
 20
1031.392551179129
 30
0.0
 11
2010.0
 21
1031.392551179129
 31
0.0
  0
LINE
  5
9E9E
  8
0
 10
2010.0
 20
1031.392551179129
 30
0.0
 11
2010.0
 21
1020.140654365776
 31
0.0
  0
LINE
  5
9E9F
  8
0
 10
2010.0
 20
1020.140654365776
 30
0.0
 11
1744.0
 21
1020.140654365776
 31
0.0
  0
LINE
  5
9EA0
  8
0
 10
1744.0
 20
1020.140654365776
 30
0.0
 11
1744.0
 21
1031.392551179129
 31
0.0
  0
LINE
  5
9EA1
  8
0
 10
1429.0
 20
1028.888757552422
 30
0.0
 11
1695.0
 21
1028.888757552422
 31
0.0
  0
LINE
  5
9EA2
  8
0
 10
1695.0
 20
1028.888757552422
 30
0.0
 11
1695.0
 21
1018.888757552422
 31
0.0
  0
LINE
  5
9EA3
  8
0
 10
1695.0
 20
1018.888757552422
 30
0.0
 11
1429.0
 21
1018.888757552422
 31
0.0
  0
LINE
  5
9EA4
  8
0
 10
1429.0
 20
1018.888757552422
 30
0.0
 11
1429.0
 21
1028.888757552422
 31
0.0
  0
LINE
  5
9EA5
  8
0
 10
1114.0
 20
1028.888757552422
 30
0.0
 11
1380.0
 21
1028.888757552422
 31
0.0
  0
LINE
  5
9EA6
  8
0
 10
1380.0
 20
1028.888757552422
 30
0.0
 11
1380.0
 21
1018.888757552422
 31
0.0
  0
LINE
  5
9EA7
  8
0
 10
1380.0
 20
1018.888757552422
 30
0.0
 11
1114.0
 21
1018.888757552422
 31
0.0
  0
LINE
  5
9EA8
  8
0
 10
1114.0
 20
1018.888757552422
 30
0.0
 11
1114.0
 21
1028.888757552422
 31
0.0
  0
LINE
  5
9EA9
  8
0
 10
2045.0
 20
1014.388757552422
 30
0.0
 11
1079.0
 21
1014.388757552422
 31
0.0
  0
LINE
  5
9EAA
  8
0
 10
1079.0
 20
1014.388757552422
 30
0.0
 11
1079.0
 21
2640.3887575524218
 31
0.0
  0
LINE
  5
9EAB
  8
0
 10
1078.9999999999991
 20
2640.3887575524218
 30
0.0
 11
2045.0
 21
2640.3887575524218
 31
0.0
  0
LINE
  5
9EAC
  8
0
 10
2045.0
 20
2640.3887575524218
 30
0.0
 11
2045.0
 21
1014.388757552422
 31
0.0
  0
LINE
  5
9EAD
  8
0
 10
2057.0
 20
1002.388757552422
 30
0.0
 11
1067.0
 21
1002.388757552422
 31
0.0
  0
LINE
  5
9EAE
  8
0
 10
1067.0
 20
1002.388757552422
 30
0.0
 11
1067.0
 21
2652.3887575524232
 31
0.0
  0
LINE
  5
9EAF
  8
0
 10
1067.0
 20
2652.3887575524232
 30
0.0
 11
2057.0
 21
2652.3887575524232
 31
0.0
  0
LINE
  5
9EB0
  8
0
 10
2057.0
 20
2652.3887575524232
 30
0.0
 11
2057.0
 21
1002.388757552422
 31
0.0
  0
LINE
  5
9EC7
  8
0
 10
3655.0
 20
2543.3887575524232
 30
0.0
 11
5155.0
 21
2543.3887575524232
 31
0.0
  0
LINE
  5
9EC8
  8
0
 10
3655.0
 20
2443.3887575524232
 30
0.0
 11
5155.0
 21
2443.3887575524232
 31
0.0
  0
LINE
  5
9EC9
  8
0
 10
3655.0
 20
2343.3887575524232
 30
0.0
 11
5155.0
 21
2343.3887575524232
 31
0.0
  0
LINE
  5
9ECA
  8
0
 10
3655.0
 20
2243.3887575524218
 30
0.0
 11
5155.0
 21
2243.3887575524218
 31
0.0
  0
LINE
  5
9ECB
  8
0
 10
3655.0
 20
2143.3887575524218
 30
0.0
 11
5155.0
 21
2143.3887575524218
 31
0.0
  0
LINE
  5
9ECC
  8
0
 10
3655.0
 20
2043.388757552422
 30
0.0
 11
5155.0
 21
2043.388757552422
 31
0.0
  0
LINE
  5
9ECD
  8
0
 10
3655.0
 20
1943.388757552422
 30
0.0
 11
5155.0
 21
1943.388757552422
 31
0.0
  0
LINE
  5
9ECE
  8
0
 10
3655.0
 20
1843.38875755242
 30
0.0
 11
5155.0
 21
1843.38875755242
 31
0.0
  0
LINE
  5
9ECF
  8
0
 10
3655.0
 20
1743.388757552422
 30
0.0
 11
5155.0
 21
1743.388757552422
 31
0.0
  0
LINE
  5
9ED0
  8
0
 10
3655.0
 20
1643.3887575524211
 30
0.0
 11
5155.0
 21
1643.3887575524211
 31
0.0
  0
LINE
  5
9ED1
  8
0
 10
3655.0
 20
1543.388757552422
 30
0.0
 11
5155.0
 21
1543.388757552422
 31
0.0
  0
LINE
  5
9ED2
  8
0
 10
3655.0
 20
1443.388757552422
 30
0.0
 11
5155.0
 21
1443.388757552422
 31
0.0
  0
LINE
  5
9ED3
  8
0
 10
3655.0
 20
2543.3887575524232
 30
0.0
 11
3655.0
 21
1443.388757552422
 31
0.0
  0
LINE
  5
9ED4
  8
0
 10
4355.0
 20
2543.3887575524232
 30
0.0
 11
4355.0
 21
1443.388757552422
 31
0.0
  0
LINE
  5
9ED5
  8
0
 10
5155.0
 20
2543.3887575524232
 30
0.0
 11
5155.0
 21
1443.388757552422
 31
0.0
  0
LINE
  5
9ED6
  8
0
 10
3655.0
 20
2543.3887575524232
 30
0.0
 11
3655.0
 21
2543.3887575524232
 31
0.0
  0
LINE
  5
9ED7
  8
図面枠
 10
5740.0
 20
200.0
 30
0.0
 11
5740.0
 21
4000.0
 31
0.0
  0
LINE
  5
9ED8
  8
図面枠
 10
5740.0
 20
4000.0
 30
0.0
 11
400.0
 21
4000.0
 31
0.0
  0
LINE
  5
9ED9
  8
図面枠
 10
400.0
 20
4000.0
 30
0.0
 11
400.0
 21
200.0
 31
0.0
  0
LINE
  5
9EDA
  8
図面枠
 10
400.0
 20
200.0
 30
0.0
 11
5740.0
 21
200.0
 31
0.0
  0
LINE
  5
9EDB
  8
用紙枠
 10
0.0
 20
0.0
 30
0.0
 11
5940.0
 21
0.0
 31
0.0
  0
LINE
  5
9EDC
  8
用紙枠
 10
5940.0
 20
0.0
 30
0.0
 11
5940.0
 21
4200.0
 31
0.0
  0
LINE
  5
9EDD
  8
用紙枠
 10
5940.0
 20
4200.0
 30
0.0
 11
0.0
 21
4200.0
 31
0.0
  0
LINE
  5
9EDE
  8
用紙枠
 10
0.0
 20
4200.0
 30
0.0
 11
0.0
 21
0.0
 31
0.0
  0
TEXT
  5
9EE0
  8
0
 10
3658.0
 20
1473.047848461513
 30
0.0
 40
40.0
  1
  質量
  0
TEXT
  5
9EE1
  8
0
 10
4547.2727272727261
 20
1576.116030279695
 30
0.0
 40
40.0
  1
1,650x990x40mm
  0
TEXT
  5
9EE2
  8
0
 10
3658.0
 20
1573.047848461513
 30
0.0
 40
40.0
  1
  外形寸法（WxHxD）
  0
TEXT
  5
9EE4
  8
0
 10
3658.0
 20
1672.9342120978761
 30
0.0
 40
40.0
  1
  最大システム電圧
  0
TEXT
  5
9EE6
  8
0
 10
3658.0
 20
1772.2523939160581
 30
0.0
 40
40.0
  1
  公称短絡電流
  0
TEXT
  5
9EE8
  8
0
 10
3658.0
 20
1872.479666643331
 30
0.0
 40
40.0
  1
  公称開放電圧
  0
TEXT
  5
9EEA
  8
0
 10
3658.0
 20
1972.593303006968
 30
0.0
 40
40.0
  1
  公称最大出力動作電流
  0
TEXT
  5
9EEC
  8
0
 10
3658.0
 20
2072.5933030069682
 30
0.0
 40
40.0
  1
  公称最大出力動作電圧
  0
TEXT
  5
9EED
  8
0
 10
4688.5227272727279
 20
2173.3887575524218
 30
0.0
 40
40.0
  1
280W
  0
TEXT
  5
9EEE
  8
0
 10
3658.0
 20
2172.4796666433308
 30
0.0
 40
40.0
  1
  公称最大出力
  0
TEXT
  5
9EEF
  8
0
 10
4688.75
 20
2273.3887575524218
 30
0.0
 40
40.0
  1
17.1%%%
  0
TEXT
  5
9EF0
  8
0
 10
3658.0
 20
2272.2523939160592
 30
0.0
 40
40.0
  1
  最大モジュール変換効率
  0
TEXT
  5
9EF1
  8
0
 10
4543.0681818181802
 20
2372.3660302796961
 30
0.0
 40
40.0
  1
シリコン単結晶系
  0
TEXT
  5
9EF2
  8
0
 10
3658.0
 20
2372.9342120978772
 30
0.0
 40
40.0
  1
  セル種類
  0
TEXT
  5
9EF3
  8
0
 10
4521.590909090909
 20
2473.3887575524218
 30
0.0
 40
40.0
  1
TGX-280PM-WHT-J
  0
TEXT
  5
9EF4
  8
0
 10
3658.0
 20
2471.9114848251488
 30
0.0
 40
40.0
  1
  型式
  0
LINE
  5
9F81
  8
0
 10
1877.072599422537
 20
2478.5907643022701
 30
0.0
 11
1859.430939741065
 21
2461.3887575524218
 31
0.0
  0
LINE
  5
9F82
  8
0
 10
1894.3512619912351
 20
2461.3887575524218
 30
0.0
 11
1877.0
 21
2478.5907643022701
 31
0.0
  0
LINE
  5
9F83
  8
0
 10
1859.430939741065
 20
2461.3887575524218
 30
0.0
 11
1877.072599422537
 21
2444.168719348957
 31
0.0
  0
LINE
  5
9F84
  8
0
 10
1877.0
 20
2444.168719348957
 30
0.0
 11
1894.3512619912351
 21
2461.3887575524218
 31
0.0
  0
LINE
  5
9F89
  8
0
 10
1404.572599422537
 20
2478.5907643022701
 30
0.0
 11
1386.930939741065
 21
2461.3887575524218
 31
0.0
  0
LINE
  5
9F8A
  8
0
 10
1421.8512619912351
 20
2461.3887575524218
 30
0.0
 11
1404.5
 21
2478.5907643022701
 31
0.0
  0
LINE
  5
9F8B
  8
0
 10
1386.930939741065
 20
2461.3887575524218
 30
0.0
 11
1404.572599422537
 21
2444.168719348957
 31
0.0
  0
LINE
  5
9F8C
  8
0
 10
1404.5
 20
2444.168719348957
 30
0.0
 11
1421.8512619912351
 21
2461.3887575524218
 31
0.0
  0
LINE
  5
9F8D
  8
0
 10
1247.072599422537
 20
2478.5907643022701
 30
0.0
 11
1229.4309397410641
 21
2461.3887575524218
 31
0.0
  0
LINE
  5
9F8E
  8
0
 10
1264.351261991234
 20
2461.3887575524218
 30
0.0
 11
1247.0
 21
2478.5907643022701
 31
0.0
  0
LINE
  5
9F8F
  8
0
 10
1229.4309397410641
 20
2461.3887575524218
 30
0.0
 11
1247.072599422537
 21
2444.168719348957
 31
0.0
  0
LINE
  5
9F90
  8
0
 10
1247.0
 20
2444.168719348957
 30
0.0
 11
1264.351261991234
 21
2461.3887575524218
 31
0.0
  0
LINE
  5
9F91
  8
0
 10
1562.072599422537
 20
2478.5907643022701
 30
0.0
 11
1544.4309397410641
 21
2461.3887575524218
 31
0.0
  0
LINE
  5
9F92
  8
0
 10
1579.3512619912351
 20
2461.3887575524218
 30
0.0
 11
1562.0
 21
2478.5907643022701
 31
0.0
  0
LINE
  5
9F93
  8
0
 10
1544.4309397410641
 20
2461.3887575524218
 30
0.0
 11
1562.072599422537
 21
2444.168719348957
 31
0.0
  0
LINE
  5
9F94
  8
0
 10
1562.0
 20
2444.168719348957
 30
0.0
 11
1579.3512619912351
 21
2461.3887575524218
 31
0.0
  0
LINE
  5
9F9C
  8
0
 10
1719.5725994225361
 20
2478.5907643022701
 30
0.0
 11
1737.214259104009
 21
2461.3887575524218
 31
0.0
  0
LINE
  5
9F9D
  8
0
 10
1702.2939368538391
 20
2461.3887575524218
 30
0.0
 11
1719.645198845074
 21
2478.5907643022701
 31
0.0
  0
LINE
  5
9F9E
  8
0
 10
1737.214259104009
 20
2461.3887575524218
 30
0.0
 11
1719.5725994225361
 21
2444.168719348957
 31
0.0
  0
LINE
  5
9F9F
  8
0
 10
1719.645198845074
 20
2444.168719348957
 30
0.0
 11
1702.2939368538391
 21
2461.3887575524218
 31
0.0
  0
LINE
  5
9FA0
  8
0
 10
1877.0725994225361
 20
2320.5907643022701
 30
0.0
 11
1859.4309397410641
 21
2303.3887575524218
 31
0.0
  0
LINE
  5
9FA1
  8
0
 10
1894.351261991234
 20
2303.3887575524218
 30
0.0
 11
1876.9999999999991
 21
2320.5907643022701
 31
0.0
  0
LINE
  5
9FA2
  8
0
 10
1859.4309397410641
 20
2303.3887575524218
 30
0.0
 11
1877.0725994225361
 21
2286.168719348957
 31
0.0
  0
LINE
  5
9FA3
  8
0
 10
1876.9999999999991
 20
2286.168719348957
 30
0.0
 11
1894.351261991234
 21
2303.3887575524218
 31
0.0
  0
LINE
  5
9FA4
  8
0
 10
1404.5725994225361
 20
2320.5907643022701
 30
0.0
 11
1386.9309397410641
 21
2303.3887575524218
 31
0.0
  0
LINE
  5
9FA5
  8
0
 10
1421.851261991234
 20
2303.3887575524218
 30
0.0
 11
1404.4999999999991
 21
2320.5907643022701
 31
0.0
  0
LINE
  5
9FA6
  8
0
 10
1386.9309397410641
 20
2303.3887575524218
 30
0.0
 11
1404.5725994225361
 21
2286.168719348957
 31
0.0
  0
LINE
  5
9FA7
  8
0
 10
1404.4999999999991
 20
2286.168719348957
 30
0.0
 11
1421.851261991234
 21
2303.3887575524218
 31
0.0
  0
LINE
  5
9FA8
  8
0
 10
1247.0725994225361
 20
2320.5907643022701
 30
0.0
 11
1229.430939741063
 21
2303.3887575524218
 31
0.0
  0
LINE
  5
9FA9
  8
0
 10
1264.351261991234
 20
2303.3887575524218
 30
0.0
 11
1246.9999999999991
 21
2320.5907643022701
 31
0.0
  0
LINE
  5
9FAA
  8
0
 10
1229.430939741063
 20
2303.3887575524218
 30
0.0
 11
1247.0725994225361
 21
2286.168719348957
 31
0.0
  0
LINE
  5
9FAB
  8
0
 10
1246.9999999999991
 20
2286.168719348957
 30
0.0
 11
1264.351261991234
 21
2303.3887575524218
 31
0.0
  0
LINE
  5
9FAC
  8
0
 10
1562.0725994225361
 20
2320.5907643022701
 30
0.0
 11
1544.4309397410641
 21
2303.3887575524218
 31
0.0
  0
LINE
  5
9FAD
  8
0
 10
1579.351261991234
 20
2303.3887575524218
 30
0.0
 11
1561.9999999999991
 21
2320.5907643022701
 31
0.0
  0
LINE
  5
9FAE
  8
0
 10
1544.4309397410641
 20
2303.3887575524218
 30
0.0
 11
1562.0725994225361
 21
2286.168719348957
 31
0.0
  0
LINE
  5
9FAF
  8
0
 10
1561.9999999999991
 20
2286.168719348957
 30
0.0
 11
1579.351261991234
 21
2303.3887575524218
 31
0.0
  0
LINE
  5
9FB0
  8
0
 10
1719.5725994225361
 20
2320.5907643022701
 30
0.0
 11
1737.2142591040081
 21
2303.3887575524218
 31
0.0
  0
LINE
  5
9FB1
  8
0
 10
1702.293936853838
 20
2303.3887575524218
 30
0.0
 11
1719.6451988450731
 21
2320.5907643022701
 31
0.0
  0
LINE
  5
9FB2
  8
0
 10
1737.2142591040081
 20
2303.3887575524218
 30
0.0
 11
1719.5725994225361
 21
2286.168719348957
 31
0.0
  0
LINE
  5
9FB3
  8
0
 10
1719.6451988450731
 20
2286.168719348957
 30
0.0
 11
1702.293936853838
 21
2303.3887575524218
 31
0.0
  0
LINE
  5
9FB4
  8
0
 10
1877.0725994225361
 20
2162.5907643022701
 30
0.0
 11
1859.4309397410641
 21
2145.3887575524241
 31
0.0
  0
LINE
  5
9FB5
  8
0
 10
1894.351261991234
 20
2145.3887575524241
 30
0.0
 11
1876.9999999999991
 21
2162.5907643022701
 31
0.0
  0
LINE
  5
9FB6
  8
0
 10
1859.4309397410641
 20
2145.3887575524241
 30
0.0
 11
1877.0725994225361
 21
2128.168719348957
 31
0.0
  0
LINE
  5
9FB7
  8
0
 10
1876.9999999999991
 20
2128.168719348957
 30
0.0
 11
1894.351261991234
 21
2145.3887575524241
 31
0.0
  0
LINE
  5
9FB8
  8
0
 10
1404.5725994225361
 20
2162.5907643022701
 30
0.0
 11
1386.9309397410641
 21
2145.3887575524241
 31
0.0
  0
LINE
  5
9FB9
  8
0
 10
1421.851261991234
 20
2145.3887575524241
 30
0.0
 11
1404.4999999999991
 21
2162.5907643022701
 31
0.0
  0
LINE
  5
9FBA
  8
0
 10
1386.9309397410641
 20
2145.3887575524241
 30
0.0
 11
1404.5725994225361
 21
2128.168719348957
 31
0.0
  0
LINE
  5
9FBB
  8
0
 10
1404.4999999999991
 20
2128.168719348957
 30
0.0
 11
1421.851261991234
 21
2145.3887575524241
 31
0.0
  0
LINE
  5
9FBC
  8
0
 10
1247.0725994225361
 20
2162.5907643022701
 30
0.0
 11
1229.430939741063
 21
2145.3887575524241
 31
0.0
  0
LINE
  5
9FBD
  8
0
 10
1264.351261991234
 20
2145.3887575524241
 30
0.0
 11
1246.9999999999991
 21
2162.5907643022701
 31
0.0
  0
LINE
  5
9FBE
  8
0
 10
1229.430939741063
 20
2145.3887575524241
 30
0.0
 11
1247.0725994225361
 21
2128.168719348957
 31
0.0
  0
LINE
  5
9FBF
  8
0
 10
1246.9999999999991
 20
2128.168719348957
 30
0.0
 11
1264.351261991234
 21
2145.3887575524241
 31
0.0
  0
LINE
  5
9FC0
  8
0
 10
1562.0725994225361
 20
2162.5907643022701
 30
0.0
 11
1544.4309397410641
 21
2145.3887575524241
 31
0.0
  0
LINE
  5
9FC1
  8
0
 10
1579.351261991234
 20
2145.3887575524241
 30
0.0
 11
1561.9999999999991
 21
2162.5907643022701
 31
0.0
  0
LINE
  5
9FC2
  8
0
 10
1544.4309397410641
 20
2145.3887575524241
 30
0.0
 11
1562.0725994225361
 21
2128.168719348957
 31
0.0
  0
LINE
  5
9FC3
  8
0
 10
1561.9999999999991
 20
2128.168719348957
 30
0.0
 11
1579.351261991234
 21
2145.3887575524241
 31
0.0
  0
LINE
  5
9FC4
  8
0
 10
1719.5725994225361
 20
2162.5907643022701
 30
0.0
 11
1737.2142591040081
 21
2145.3887575524241
 31
0.0
  0
LINE
  5
9FC5
  8
0
 10
1702.293936853838
 20
2145.3887575524241
 30
0.0
 11
1719.6451988450731
 21
2162.5907643022701
 31
0.0
  0
LINE
  5
9FC6
  8
0
 10
1737.2142591040081
 20
2145.3887575524241
 30
0.0
 11
1719.5725994225361
 21
2128.168719348957
 31
0.0
  0
LINE
  5
9FC7
  8
0
 10
1719.6451988450731
 20
2128.168719348957
 30
0.0
 11
1702.293936853838
 21
2145.3887575524241
 31
0.0
  0
LINE
  5
9FC8
  8
0
 10
1877.0725994225361
 20
2002.5907643022699
 30
0.0
 11
1859.4309397410641
 21
1985.388757552422
 31
0.0
  0
LINE
  5
9FC9
  8
0
 10
1894.351261991234
 20
1985.388757552422
 30
0.0
 11
1876.9999999999991
 21
2002.5907643022699
 31
0.0
  0
LINE
  5
9FCA
  8
0
 10
1859.4309397410641
 20
1985.388757552422
 30
0.0
 11
1877.0725994225361
 21
1968.1687193489561
 31
0.0
  0
LINE
  5
9FCB
  8
0
 10
1876.9999999999991
 20
1968.1687193489561
 30
0.0
 11
1894.351261991234
 21
1985.388757552422
 31
0.0
  0
LINE
  5
9FCC
  8
0
 10
1404.5725994225361
 20
2002.5907643022699
 30
0.0
 11
1386.9309397410641
 21
1985.388757552422
 31
0.0
  0
LINE
  5
9FCD
  8
0
 10
1421.851261991234
 20
1985.388757552422
 30
0.0
 11
1404.4999999999991
 21
2002.5907643022699
 31
0.0
  0
LINE
  5
9FCE
  8
0
 10
1386.9309397410641
 20
1985.388757552422
 30
0.0
 11
1404.5725994225361
 21
1968.1687193489561
 31
0.0
  0
LINE
  5
9FCF
  8
0
 10
1404.4999999999991
 20
1968.1687193489561
 30
0.0
 11
1421.851261991234
 21
1985.388757552422
 31
0.0
  0
LINE
  5
9FD0
  8
0
 10
1247.0725994225361
 20
2002.5907643022699
 30
0.0
 11
1229.430939741063
 21
1985.388757552422
 31
0.0
  0
LINE
  5
9FD1
  8
0
 10
1264.351261991234
 20
1985.388757552422
 30
0.0
 11
1246.9999999999991
 21
2002.5907643022699
 31
0.0
  0
LINE
  5
9FD2
  8
0
 10
1229.430939741063
 20
1985.388757552422
 30
0.0
 11
1247.0725994225361
 21
1968.1687193489561
 31
0.0
  0
LINE
  5
9FD3
  8
0
 10
1246.9999999999991
 20
1968.1687193489561
 30
0.0
 11
1264.351261991234
 21
1985.388757552422
 31
0.0
  0
LINE
  5
9FD4
  8
0
 10
1562.0725994225361
 20
2002.5907643022699
 30
0.0
 11
1544.4309397410641
 21
1985.388757552422
 31
0.0
  0
LINE
  5
9FD5
  8
0
 10
1579.351261991234
 20
1985.388757552422
 30
0.0
 11
1561.9999999999991
 21
2002.5907643022699
 31
0.0
  0
LINE
  5
9FD6
  8
0
 10
1544.4309397410641
 20
1985.388757552422
 30
0.0
 11
1562.0725994225361
 21
1968.1687193489561
 31
0.0
  0
LINE
  5
9FD7
  8
0
 10
1561.9999999999991
 20
1968.1687193489561
 30
0.0
 11
1579.351261991234
 21
1985.388757552422
 31
0.0
  0
LINE
  5
9FD8
  8
0
 10
1719.5725994225361
 20
2002.5907643022699
 30
0.0
 11
1737.2142591040081
 21
1985.388757552422
 31
0.0
  0
LINE
  5
9FD9
  8
0
 10
1702.293936853838
 20
1985.388757552422
 30
0.0
 11
1719.6451988450731
 21
2002.5907643022699
 31
0.0
  0
LINE
  5
9FDA
  8
0
 10
1737.2142591040081
 20
1985.388757552422
 30
0.0
 11
1719.5725994225361
 21
1968.1687193489561
 31
0.0
  0
LINE
  5
9FDB
  8
0
 10
1719.6451988450731
 20
1968.1687193489561
 30
0.0
 11
1702.293936853838
 21
1985.388757552422
 31
0.0
  0
LINE
  5
9FDC
  8
0
 10
1877.072599422537
 20
1844.590764302269
 30
0.0
 11
1859.430939741065
 21
1827.38875755242
 31
0.0
  0
LINE
  5
9FDD
  8
0
 10
1894.3512619912351
 20
1827.38875755242
 30
0.0
 11
1877.0
 21
1844.590764302269
 31
0.0
  0
LINE
  5
9FDE
  8
0
 10
1859.430939741065
 20
1827.38875755242
 30
0.0
 11
1877.072599422537
 21
1810.1687193489561
 31
0.0
  0
LINE
  5
9FDF
  8
0
 10
1877.0
 20
1810.1687193489561
 30
0.0
 11
1894.3512619912351
 21
1827.38875755242
 31
0.0
  0
LINE
  5
9FE0
  8
0
 10
1404.572599422537
 20
1844.590764302269
 30
0.0
 11
1386.930939741065
 21
1827.38875755242
 31
0.0
  0
LINE
  5
9FE1
  8
0
 10
1421.8512619912351
 20
1827.38875755242
 30
0.0
 11
1404.5
 21
1844.590764302269
 31
0.0
  0
LINE
  5
9FE2
  8
0
 10
1386.930939741065
 20
1827.38875755242
 30
0.0
 11
1404.572599422537
 21
1810.1687193489561
 31
0.0
  0
LINE
  5
9FE3
  8
0
 10
1404.5
 20
1810.1687193489561
 30
0.0
 11
1421.8512619912351
 21
1827.38875755242
 31
0.0
  0
LINE
  5
9FE4
  8
0
 10
1247.072599422537
 20
1844.590764302269
 30
0.0
 11
1229.430939741065
 21
1827.38875755242
 31
0.0
  0
LINE
  5
9FE5
  8
0
 10
1264.3512619912351
 20
1827.38875755242
 30
0.0
 11
1247.0
 21
1844.590764302269
 31
0.0
  0
LINE
  5
9FE6
  8
0
 10
1229.430939741065
 20
1827.38875755242
 30
0.0
 11
1247.072599422537
 21
1810.1687193489561
 31
0.0
  0
LINE
  5
9FE7
  8
0
 10
1247.0
 20
1810.1687193489561
 30
0.0
 11
1264.3512619912351
 21
1827.38875755242
 31
0.0
  0
LINE
  5
9FE8
  8
0
 10
1562.072599422537
 20
1844.590764302269
 30
0.0
 11
1544.430939741065
 21
1827.38875755242
 31
0.0
  0
LINE
  5
9FE9
  8
0
 10
1579.3512619912351
 20
1827.38875755242
 30
0.0
 11
1562.0
 21
1844.590764302269
 31
0.0
  0
LINE
  5
9FEA
  8
0
 10
1544.430939741065
 20
1827.38875755242
 30
0.0
 11
1562.072599422537
 21
1810.1687193489561
 31
0.0
  0
LINE
  5
9FEB
  8
0
 10
1562.0
 20
1810.1687193489561
 30
0.0
 11
1579.3512619912351
 21
1827.38875755242
 31
0.0
  0
LINE
  5
9FEC
  8
0
 10
1719.572599422537
 20
1844.590764302269
 30
0.0
 11
1737.214259104009
 21
1827.38875755242
 31
0.0
  0
LINE
  5
9FED
  8
0
 10
1702.2939368538391
 20
1827.38875755242
 30
0.0
 11
1719.645198845074
 21
1844.590764302269
 31
0.0
  0
LINE
  5
9FEE
  8
0
 10
1737.214259104009
 20
1827.38875755242
 30
0.0
 11
1719.572599422537
 21
1810.1687193489561
 31
0.0
  0
LINE
  5
9FEF
  8
0
 10
1719.645198845074
 20
1810.1687193489561
 30
0.0
 11
1702.2939368538391
 21
1827.38875755242
 31
0.0
  0
LINE
  5
9FF0
  8
0
 10
1877.072599422537
 20
1686.5907643022699
 30
0.0
 11
1859.430939741065
 21
1669.388757552422
 31
0.0
  0
LINE
  5
9FF1
  8
0
 10
1894.3512619912351
 20
1669.388757552422
 30
0.0
 11
1877.0
 21
1686.5907643022699
 31
0.0
  0
LINE
  5
9FF2
  8
0
 10
1859.430939741065
 20
1669.388757552422
 30
0.0
 11
1877.072599422537
 21
1652.1687193489561
 31
0.0
  0
LINE
  5
9FF3
  8
0
 10
1877.0
 20
1652.1687193489561
 30
0.0
 11
1894.3512619912351
 21
1669.388757552422
 31
0.0
  0
LINE
  5
9FF4
  8
0
 10
1404.572599422537
 20
1686.5907643022699
 30
0.0
 11
1386.930939741065
 21
1669.388757552422
 31
0.0
  0
LINE
  5
9FF5
  8
0
 10
1421.8512619912351
 20
1669.388757552422
 30
0.0
 11
1404.5
 21
1686.5907643022699
 31
0.0
  0
LINE
  5
9FF6
  8
0
 10
1386.930939741065
 20
1669.388757552422
 30
0.0
 11
1404.572599422537
 21
1652.1687193489561
 31
0.0
  0
LINE
  5
9FF7
  8
0
 10
1404.5
 20
1652.1687193489561
 30
0.0
 11
1421.8512619912351
 21
1669.388757552422
 31
0.0
  0
LINE
  5
9FF8
  8
0
 10
1247.072599422537
 20
1686.5907643022699
 30
0.0
 11
1229.430939741065
 21
1669.388757552422
 31
0.0
  0
LINE
  5
9FF9
  8
0
 10
1264.3512619912351
 20
1669.388757552422
 30
0.0
 11
1247.0
 21
1686.5907643022699
 31
0.0
  0
LINE
  5
9FFA
  8
0
 10
1229.430939741065
 20
1669.388757552422
 30
0.0
 11
1247.072599422537
 21
1652.1687193489561
 31
0.0
  0
LINE
  5
9FFB
  8
0
 10
1247.0
 20
1652.1687193489561
 30
0.0
 11
1264.3512619912351
 21
1669.388757552422
 31
0.0
  0
LINE
  5
9FFC
  8
0
 10
1562.072599422537
 20
1686.5907643022699
 30
0.0
 11
1544.430939741065
 21
1669.388757552422
 31
0.0
  0
LINE
  5
9FFD
  8
0
 10
1579.3512619912351
 20
1669.388757552422
 30
0.0
 11
1562.0
 21
1686.5907643022699
 31
0.0
  0
LINE
  5
9FFE
  8
0
 10
1544.430939741065
 20
1669.388757552422
 30
0.0
 11
1562.072599422537
 21
1652.1687193489561
 31
0.0
  0
LINE
  5
9FFF
  8
0
 10
1562.0
 20
1652.1687193489561
 30
0.0
 11
1579.3512619912351
 21
1669.388757552422
 31
0.0
  0
LINE
  5
A000
  8
0
 10
1719.572599422537
 20
1686.5907643022699
 30
0.0
 11
1737.214259104009
 21
1669.388757552422
 31
0.0
  0
LINE
  5
A001
  8
0
 10
1702.2939368538391
 20
1669.388757552422
 30
0.0
 11
1719.645198845074
 21
1686.5907643022699
 31
0.0
  0
LINE
  5
A002
  8
0
 10
1737.214259104009
 20
1669.388757552422
 30
0.0
 11
1719.572599422537
 21
1652.1687193489561
 31
0.0
  0
LINE
  5
A003
  8
0
 10
1719.645198845074
 20
1652.1687193489561
 30
0.0
 11
1702.2939368538391
 21
1669.388757552422
 31
0.0
  0
LINE
  5
A004
  8
0
 10
1877.072599422534
 20
1528.590764302269
 30
0.0
 11
1859.430939741062
 21
1511.388757552422
 31
0.0
  0
LINE
  5
A005
  8
0
 10
1894.3512619912319
 20
1511.388757552422
 30
0.0
 11
1876.999999999998
 21
1528.590764302269
 31
0.0
  0
LINE
  5
A006
  8
0
 10
1859.430939741062
 20
1511.388757552422
 30
0.0
 11
1877.072599422534
 21
1494.1687193489561
 31
0.0
  0
LINE
  5
A007
  8
0
 10
1876.999999999998
 20
1494.1687193489561
 30
0.0
 11
1894.3512619912319
 21
1511.388757552422
 31
0.0
  0
LINE
  5
A008
  8
0
 10
1404.5725994225349
 20
1528.590764302269
 30
0.0
 11
1386.930939741063
 21
1511.388757552422
 31
0.0
  0
LINE
  5
A009
  8
0
 10
1421.8512619912331
 20
1511.388757552422
 30
0.0
 11
1404.499999999998
 21
1528.590764302269
 31
0.0
  0
LINE
  5
A00A
  8
0
 10
1386.930939741063
 20
1511.388757552422
 30
0.0
 11
1404.5725994225349
 21
1494.1687193489561
 31
0.0
  0
LINE
  5
A00B
  8
0
 10
1404.499999999998
 20
1494.1687193489561
 30
0.0
 11
1421.8512619912331
 21
1511.388757552422
 31
0.0
  0
LINE
  5
A00C
  8
0
 10
1247.0725994225349
 20
1528.590764302269
 30
0.0
 11
1229.430939741062
 21
1511.388757552422
 31
0.0
  0
LINE
  5
A00D
  8
0
 10
1264.3512619912331
 20
1511.388757552422
 30
0.0
 11
1246.999999999998
 21
1528.590764302269
 31
0.0
  0
LINE
  5
A00E
  8
0
 10
1229.430939741062
 20
1511.388757552422
 30
0.0
 11
1247.0725994225349
 21
1494.1687193489561
 31
0.0
  0
LINE
  5
A00F
  8
0
 10
1246.999999999998
 20
1494.1687193489561
 30
0.0
 11
1264.3512619912331
 21
1511.388757552422
 31
0.0
  0
LINE
  5
A010
  8
0
 10
1562.0725994225349
 20
1528.590764302269
 30
0.0
 11
1544.430939741063
 21
1511.388757552422
 31
0.0
  0
LINE
  5
A011
  8
0
 10
1579.3512619912331
 20
1511.388757552422
 30
0.0
 11
1561.999999999998
 21
1528.590764302269
 31
0.0
  0
LINE
  5
A012
  8
0
 10
1544.430939741063
 20
1511.388757552422
 30
0.0
 11
1562.0725994225349
 21
1494.1687193489561
 31
0.0
  0
LINE
  5
A013
  8
0
 10
1561.999999999998
 20
1494.1687193489561
 30
0.0
 11
1579.3512619912331
 21
1511.388757552422
 31
0.0
  0
LINE
  5
A014
  8
0
 10
1719.5725994225349
 20
1528.590764302269
 30
0.0
 11
1737.214259104006
 21
1511.388757552422
 31
0.0
  0
LINE
  5
A015
  8
0
 10
1702.2939368538371
 20
1511.388757552422
 30
0.0
 11
1719.6451988450719
 21
1528.590764302269
 31
0.0
  0
LINE
  5
A016
  8
0
 10
1737.214259104006
 20
1511.388757552422
 30
0.0
 11
1719.5725994225349
 21
1494.1687193489561
 31
0.0
  0
LINE
  5
A017
  8
0
 10
1719.6451988450719
 20
1494.1687193489561
 30
0.0
 11
1702.2939368538371
 21
1511.388757552422
 31
0.0
  0
TEXT
  5
A048
  8
0
 10
4686.022727272727
 20
2073.3887575524218
 30
0.0
 40
40.0
  1
31.0V
  0
TEXT
  5
A049
  8
0
 10
4686.022727272727
 20
1973.388757552422
 30
0.0
 40
40.0
  1
9.02A
  0
TEXT
  5
A04A
  8
0
 10
4686.022727272727
 20
1873.388757552422
 30
0.0
 40
40.0
  1
38.9V
  0
TEXT
  5
A04B
  8
0
 10
4686.022727272727
 20
1773.388757552422
 30
0.0
 40
40.0
  1
9.55A
  0
TEXT
  5
A04C
  8
0
 10
4675.7954545454531
 20
1673.3887575524211
 30
0.0
 40
40.0
  1
1000V
  0
LINE
  5
A1AE
  8
0
 10
1106.7672319505191
 20
1351.888757552422
 30
0.0
 11
2017.2327680494809
 21
1351.8887575524211
 31
0.0
  0
LINE
  5
A1AF
  8
0
 10
1106.7656476416951
 20
1354.888757552422
 30
0.0
 11
2017.2343523583049
 21
1354.888757552422
 31
0.0
  0
LINE
  5
A1B0
  8
0
 10
1106.7656476416939
 20
1196.888757552422
 30
0.0
 11
2017.2343523583061
 21
1196.888757552422
 31
0.0
  0
LINE
  5
A1B1
  8
0
 10
1876.9999999999959
 20
1370.5907643022699
 30
0.0
 11
1859.358340318523
 21
1353.388757552422
 31
0.0
  0
LINE
  5
A1B2
  8
0
 10
1894.2786625686931
 20
1353.388757552422
 30
0.0
 11
1876.9274005774589
 21
1370.5907643022699
 31
0.0
  0
LINE
  5
A1B3
  8
0
 10
1859.358340318523
 20
1353.388757552422
 30
0.0
 11
1876.9999999999959
 21
1336.1687193489561
 31
0.0
  0
LINE
  5
A1B4
  8
0
 10
1876.9274005774589
 20
1336.1687193489561
 30
0.0
 11
1894.2786625686931
 21
1353.388757552422
 31
0.0
  0
LINE
  5
A1B5
  8
0
 10
1404.4999999999959
 20
1370.5907643022699
 30
0.0
 11
1386.858340318523
 21
1353.388757552422
 31
0.0
  0
LINE
  5
A1B6
  8
0
 10
1421.778662568694
 20
1353.388757552422
 30
0.0
 11
1404.4274005774589
 21
1370.5907643022699
 31
0.0
  0
LINE
  5
A1B7
  8
0
 10
1386.858340318523
 20
1353.388757552422
 30
0.0
 11
1404.4999999999959
 21
1336.1687193489561
 31
0.0
  0
LINE
  5
A1B8
  8
0
 10
1404.4274005774589
 20
1336.1687193489561
 30
0.0
 11
1421.778662568694
 21
1353.388757552422
 31
0.0
  0
LINE
  5
A1B9
  8
0
 10
1246.9999999999959
 20
1370.5907643022699
 30
0.0
 11
1229.358340318523
 21
1353.388757552422
 31
0.0
  0
LINE
  5
A1BA
  8
0
 10
1264.2786625686931
 20
1353.388757552422
 30
0.0
 11
1246.927400577458
 21
1370.5907643022699
 31
0.0
  0
LINE
  5
A1BB
  8
0
 10
1229.358340318523
 20
1353.388757552422
 30
0.0
 11
1246.9999999999959
 21
1336.1687193489561
 31
0.0
  0
LINE
  5
A1BC
  8
0
 10
1246.927400577458
 20
1336.1687193489561
 30
0.0
 11
1264.2786625686931
 21
1353.388757552422
 31
0.0
  0
LINE
  5
A1BD
  8
0
 10
1561.9999999999959
 20
1370.5907643022699
 30
0.0
 11
1544.358340318523
 21
1353.388757552422
 31
0.0
  0
LINE
  5
A1BE
  8
0
 10
1579.2786625686931
 20
1353.388757552422
 30
0.0
 11
1561.9274005774589
 21
1370.5907643022699
 31
0.0
  0
LINE
  5
A1BF
  8
0
 10
1544.358340318523
 20
1353.388757552422
 30
0.0
 11
1561.9999999999959
 21
1336.1687193489561
 31
0.0
  0
LINE
  5
A1C0
  8
0
 10
1561.9274005774589
 20
1336.1687193489561
 30
0.0
 11
1579.2786625686931
 21
1353.388757552422
 31
0.0
  0
LINE
  5
A1C1
  8
0
 10
1719.4999999999959
 20
1370.5907643022699
 30
0.0
 11
1737.1416596814679
 21
1353.388757552422
 31
0.0
  0
LINE
  5
A1C2
  8
0
 10
1702.221337431298
 20
1353.388757552422
 30
0.0
 11
1719.5725994225329
 21
1370.5907643022699
 31
0.0
  0
LINE
  5
A1C3
  8
0
 10
1737.1416596814679
 20
1353.388757552422
 30
0.0
 11
1719.4999999999959
 21
1336.1687193489561
 31
0.0
  0
LINE
  5
A1C4
  8
0
 10
1719.5725994225329
 20
1336.1687193489561
 30
0.0
 11
1702.221337431298
 21
1353.388757552422
 31
0.0
  0
LINE
  5
A1C5
  8
0
 10
1106.7672319505191
 20
1193.8887575524179
 30
0.0
 11
2017.2327680494791
 21
1193.8887575524179
 31
0.0
  0
LINE
  5
A1C6
  8
0
 10
1106.7656476416969
 20
1196.8887575524179
 30
0.0
 11
2017.2343523583031
 21
1196.8887575524179
 31
0.0
  0
LINE
  5
A1C7
  8
0
 10
1108.2060631461579
 20
1038.8887575524191
 30
0.0
 11
1229.3583403185251
 21
1038.8887575524179
 31
0.0
  0
LINE
  5
A1C8
  8
0
 10
1876.999999999998
 20
1212.5907643022661
 30
0.0
 11
1859.3583403185251
 21
1195.3887575524179
 31
0.0
  0
LINE
  5
A1C9
  8
0
 10
1894.278662568694
 20
1195.3887575524179
 30
0.0
 11
1876.927400577461
 21
1212.5907643022661
 31
0.0
  0
LINE
  5
A1CA
  8
0
 10
1859.3583403185251
 20
1195.3887575524179
 30
0.0
 11
1876.999999999998
 21
1178.1687193489529
 31
0.0
  0
LINE
  5
A1CB
  8
0
 10
1876.927400577461
 20
1178.1687193489529
 30
0.0
 11
1894.278662568694
 21
1195.3887575524179
 31
0.0
  0
LINE
  5
A1CC
  8
0
 10
1404.499999999998
 20
1212.5907643022661
 30
0.0
 11
1386.8583403185251
 21
1195.3887575524179
 31
0.0
  0
LINE
  5
A1CD
  8
0
 10
1421.7786625686961
 20
1195.3887575524179
 30
0.0
 11
1404.427400577461
 21
1212.5907643022661
 31
0.0
  0
LINE
  5
A1CE
  8
0
 10
1386.8583403185251
 20
1195.3887575524179
 30
0.0
 11
1404.499999999998
 21
1178.1687193489529
 31
0.0
  0
LINE
  5
A1CF
  8
0
 10
1404.427400577461
 20
1178.1687193489529
 30
0.0
 11
1421.7786625686961
 21
1195.3887575524179
 31
0.0
  0
LINE
  5
A1D0
  8
0
 10
1246.999999999998
 20
1212.5907643022661
 30
0.0
 11
1229.3583403185251
 21
1195.3887575524179
 31
0.0
  0
LINE
  5
A1D1
  8
0
 10
1264.2786625686949
 20
1195.3887575524179
 30
0.0
 11
1246.927400577461
 21
1212.5907643022661
 31
0.0
  0
LINE
  5
A1D2
  8
0
 10
1229.3583403185251
 20
1195.3887575524179
 30
0.0
 11
1246.999999999998
 21
1178.1687193489529
 31
0.0
  0
LINE
  5
A1D3
  8
0
 10
1246.927400577461
 20
1178.1687193489529
 30
0.0
 11
1264.2786625686949
 21
1195.3887575524179
 31
0.0
  0
LINE
  5
A1D4
  8
0
 10
1561.999999999998
 20
1212.5907643022661
 30
0.0
 11
1544.3583403185251
 21
1195.3887575524179
 31
0.0
  0
LINE
  5
A1D5
  8
0
 10
1579.278662568694
 20
1195.3887575524179
 30
0.0
 11
1561.927400577461
 21
1212.5907643022661
 31
0.0
  0
LINE
  5
A1D6
  8
0
 10
1544.3583403185251
 20
1195.3887575524179
 30
0.0
 11
1561.999999999998
 21
1178.1687193489529
 31
0.0
  0
LINE
  5
A1D7
  8
0
 10
1561.927400577461
 20
1178.1687193489529
 30
0.0
 11
1579.278662568694
 21
1195.3887575524179
 31
0.0
  0
LINE
  5
A1D8
  8
0
 10
1719.499999999998
 20
1212.5907643022661
 30
0.0
 11
1737.1416596814699
 21
1195.3887575524179
 31
0.0
  0
LINE
  5
A1D9
  8
0
 10
1702.2213374313001
 20
1195.3887575524179
 30
0.0
 11
1719.5725994225349
 21
1212.5907643022661
 31
0.0
  0
LINE
  5
A1DA
  8
0
 10
1737.1416596814699
 20
1195.3887575524179
 30
0.0
 11
1719.499999999998
 21
1178.1687193489529
 31
0.0
  0
LINE
  5
A1DB
  8
0
 10
1719.5725994225349
 20
1178.1687193489529
 30
0.0
 11
1702.2213374313001
 21
1195.3887575524179
 31
0.0
  0
LINE
  5
A1DE
  8
0
 10
1090.927400577461
 20
1336.1687193489579
 30
0.0
 11
1090.927400577461
 21
1212.5907643022661
 31
0.0
  0
LINE
  5
A1DF
  8
0
 10
1090.927400577463
 20
1178.168719348954
 30
0.0
 11
1090.927400577463
 21
1056.0187893786449
 31
0.0
  0
LINE
  5
A26D
  8
0
 10
1246.999999999998
 20
1056.0907643022661
 30
0.0
 11
1229.3583403185251
 21
1038.8887575524191
 31
0.0
  0
LINE
  5
A26E
  8
0
 10
1264.2786625686949
 20
1038.8887575524191
 30
0.0
 11
1246.927400577461
 21
1056.0907643022661
 31
0.0
  0
LINE
  5
A271
  8
0
 10
1404.4999999999959
 20
1056.0907643022681
 30
0.0
 11
1386.858340318523
 21
1038.88875755242
 31
0.0
  0
LINE
  5
A272
  8
0
 10
1421.778662568694
 20
1038.88875755242
 30
0.0
 11
1404.4274005774589
 21
1056.0907643022681
 31
0.0
  0
LINE
  5
A273
  8
0
 10
1561.999999999998
 20
1056.0907643022661
 30
0.0
 11
1544.3583403185251
 21
1038.8887575524191
 31
0.0
  0
LINE
  5
A274
  8
0
 10
1579.3512619912331
 20
1038.8887575524191
 30
0.0
 11
1561.999999999998
 21
1056.0907643022661
 31
0.0
  0
LINE
  5
A275
  8
0
 10
1719.5725994225329
 20
1056.0907643022681
 30
0.0
 11
1701.93093974106
 21
1038.88875755242
 31
0.0
  0
LINE
  5
A276
  8
0
 10
1736.8512619912301
 20
1038.88875755242
 30
0.0
 11
1719.4999999999959
 21
1056.0907643022681
 31
0.0
  0
LINE
  5
A277
  8
0
 10
1876.999999999998
 20
1056.0907643022661
 30
0.0
 11
1859.3583403185251
 21
1038.8887575524191
 31
0.0
  0
LINE
  5
A278
  8
0
 10
1894.278662568694
 20
1038.8887575524191
 30
0.0
 11
1876.92740057746
 21
1056.0907643022661
 31
0.0
  0
LINE
  5
A279
  8
0
 10
1108.2060631461579
 20
1038.8887575524191
 30
0.0
 11
1090.8548011549231
 21
1056.0907643022661
 31
0.0
  0
LINE
  5
A27A
  8
0
 10
2032.92740057746
 20
1056.0907643022661
 30
0.0
 11
2015.2857408959881
 21
1038.8887575524191
 31
0.0
  0
LINE
  5
A27B
  8
0
 10
1894.278662568694
 20
1038.8887575524179
 30
0.0
 11
2015.2857408959881
 21
1038.8887575524191
 31
0.0
  0
LINE
  5
A27C
  8
0
 10
1736.8512619912331
 20
1038.8887575524179
 30
0.0
 11
1859.3583403185251
 21
1038.8887575524179
 31
0.0
  0
LINE
  5
A27D
  8
0
 10
1421.778662568694
 20
1038.8887575524179
 30
0.0
 11
1544.3583403185251
 21
1038.8887575524179
 31
0.0
  0
LINE
  5
A27E
  8
0
 10
1264.2786625686961
 20
1038.8887575524179
 30
0.0
 11
1386.8583403185221
 21
1038.8887575524179
 31
0.0
  0
LINE
  5
A27F
  8
0
 10
1579.3512619912331
 20
1038.8887575524179
 30
0.0
 11
1701.9309397410591
 21
1038.8887575524179
 31
0.0
  0
LINE
  5
A2B2
  8
0
 10
1108.2060631461579
 20
2615.8887575524232
 30
0.0
 11
1229.3583403185251
 21
2615.8887575524232
 31
0.0
  0
LINE
  5
A2B3
  8
0
 10
1264.2786625686961
 20
2615.8887575524232
 30
0.0
 11
1386.858340318521
 21
2615.8887575524232
 31
0.0
  0
LINE
  5
A2B4
  8
0
 10
1421.778662568694
 20
2615.8887575524232
 30
0.0
 11
1544.3583403185251
 21
2615.8887575524232
 31
0.0
  0
LINE
  5
A2B5
  8
0
 10
1579.3512619912319
 20
2615.8887575524232
 30
0.0
 11
1701.930939741058
 21
2615.8887575524232
 31
0.0
  0
LINE
  5
A2B6
  8
0
 10
1736.8512619912319
 20
2615.8887575524232
 30
0.0
 11
1859.3583403185251
 21
2615.8887575524232
 31
0.0
  0
LINE
  5
A2B7
  8
0
 10
1894.278662568694
 20
2615.8887575524232
 30
0.0
 11
2015.2857408959869
 21
2615.8887575524232
 31
0.0
  0
LINE
  5
A2B8
  8
0
 10
1246.999999999998
 20
2598.6867508025748
 30
0.0
 11
1229.3583403185251
 21
2615.8887575524232
 31
0.0
  0
LINE
  5
A2B9
  8
0
 10
1264.2786625686949
 20
2615.8887575524232
 30
0.0
 11
1246.92740057746
 21
2598.6867508025748
 31
0.0
  0
LINE
  5
A2BA
  8
0
 10
1404.4999999999959
 20
2598.686750802573
 30
0.0
 11
1386.858340318523
 21
2615.8887575524209
 31
0.0
  0
LINE
  5
A2BB
  8
0
 10
1421.7786625686931
 20
2615.8887575524209
 30
0.0
 11
1404.4274005774589
 21
2598.686750802573
 31
0.0
  0
LINE
  5
A2BC
  8
0
 10
1561.999999999998
 20
2598.6867508025748
 30
0.0
 11
1544.3583403185251
 21
2615.8887575524232
 31
0.0
  0
LINE
  5
A2BD
  8
0
 10
1579.3512619912319
 20
2615.8887575524232
 30
0.0
 11
1561.999999999998
 21
2598.6867508025748
 31
0.0
  0
LINE
  5
A2BE
  8
0
 10
1719.5725994225329
 20
2598.686750802573
 30
0.0
 11
1701.93093974106
 21
2615.8887575524209
 31
0.0
  0
LINE
  5
A2BF
  8
0
 10
1736.8512619912301
 20
2615.8887575524209
 30
0.0
 11
1719.499999999995
 21
2598.686750802573
 31
0.0
  0
LINE
  5
A2C0
  8
0
 10
1876.999999999997
 20
2598.6867508025748
 30
0.0
 11
1859.3583403185251
 21
2615.8887575524232
 31
0.0
  0
LINE
  5
A2C1
  8
0
 10
1894.278662568694
 20
2615.8887575524232
 30
0.0
 11
1876.92740057746
 21
2598.6867508025748
 31
0.0
  0
LINE
  5
A2C2
  8
0
 10
1108.2060631461579
 20
2615.8887575524232
 30
0.0
 11
1090.8548011549231
 21
2598.6867508025748
 31
0.0
  0
LINE
  5
A2C3
  8
0
 10
2033.0
 20
2598.6159606513579
 30
0.0
 11
2015.2857408959869
 21
2615.8887575524232
 31
0.0
  0
LINE
  5
A2C4
  8
0
 10
1108.3512619912351
 20
2461.3887575524218
 30
0.0
 11
1091.0
 21
2478.5907643022701
 31
0.0
  0
LINE
  5
A2C5
  8
0
 10
1091.0
 20
2444.168719348957
 30
0.0
 11
1108.3512619912351
 21
2461.3887575524218
 31
0.0
  0
LINE
  5
A2C6
  8
0
 10
1108.351261991234
 20
2303.3887575524218
 30
0.0
 11
1090.9999999999991
 21
2320.5907643022701
 31
0.0
  0
LINE
  5
A2C7
  8
0
 10
1090.9999999999991
 20
2286.168719348957
 30
0.0
 11
1108.351261991234
 21
2303.3887575524218
 31
0.0
  0
LINE
  5
A2C8
  8
0
 10
1108.351261991234
 20
2145.3887575524241
 30
0.0
 11
1090.9999999999991
 21
2162.5907643022701
 31
0.0
  0
LINE
  5
A2C9
  8
0
 10
1090.9999999999991
 20
2128.168719348957
 30
0.0
 11
1108.351261991234
 21
2145.3887575524241
 31
0.0
  0
LINE
  5
A2CA
  8
0
 10
1108.351261991234
 20
1985.388757552422
 30
0.0
 11
1090.9999999999991
 21
2002.5907643022699
 31
0.0
  0
LINE
  5
A2CB
  8
0
 10
1090.9999999999991
 20
1968.1687193489561
 30
0.0
 11
1108.351261991234
 21
1985.388757552422
 31
0.0
  0
LINE
  5
A2CC
  8
0
 10
1108.3512619912351
 20
1827.38875755242
 30
0.0
 11
1091.0000000000009
 21
1844.590764302269
 31
0.0
  0
LINE
  5
A2CD
  8
0
 10
1091.0000000000009
 20
1810.1687193489561
 30
0.0
 11
1108.3512619912351
 21
1827.38875755242
 31
0.0
  0
LINE
  5
A2CE
  8
0
 10
1108.3512619912351
 20
1669.388757552422
 30
0.0
 11
1091.0000000000009
 21
1686.5907643022699
 31
0.0
  0
LINE
  5
A2CF
  8
0
 10
1091.0000000000009
 20
1652.1687193489561
 30
0.0
 11
1108.3512619912351
 21
1669.388757552422
 31
0.0
  0
LINE
  5
A2D0
  8
0
 10
1108.3512619912331
 20
1511.388757552422
 30
0.0
 11
1090.999999999998
 21
1528.590764302269
 31
0.0
  0
LINE
  5
A2D1
  8
0
 10
1090.999999999998
 20
1494.1687193489561
 30
0.0
 11
1108.3512619912331
 21
1511.388757552422
 31
0.0
  0
LINE
  5
A2D2
  8
0
 10
1108.278662568694
 20
1353.388757552422
 30
0.0
 11
1090.9274005774589
 21
1370.5907643022699
 31
0.0
  0
LINE
  5
A2D3
  8
0
 10
1090.9274005774589
 20
1336.1687193489561
 30
0.0
 11
1108.278662568694
 21
1353.388757552422
 31
0.0
  0
LINE
  5
A2D4
  8
0
 10
1108.2786625686961
 20
1195.3887575524179
 30
0.0
 11
1090.927400577461
 21
1212.5907643022661
 31
0.0
  0
LINE
  5
A2D5
  8
0
 10
1090.927400577461
 20
1178.1687193489529
 30
0.0
 11
1108.2786625686961
 21
1195.3887575524179
 31
0.0
  0
LINE
  5
A2D7
  8
0
 10
1091.0
 20
1528.5907643022681
 30
0.0
 11
1091.0
 21
1652.1687193489561
 31
0.0
  0
LINE
  5
A2D8
  8
0
 10
1091.0
 20
1686.5907643022699
 30
0.0
 11
1091.0
 21
1810.1687193489561
 31
0.0
  0
LINE
  5
A2D9
  8
0
 10
1091.0
 20
1844.590764302269
 30
0.0
 11
1091.0
 21
1968.168719348957
 31
0.0
  0
LINE
  5
A2DA
  8
0
 10
1091.0
 20
2002.590764302269
 30
0.0
 11
1091.0
 21
2128.168719348957
 31
0.0
  0
LINE
  5
A2DB
  8
0
 10
1091.0
 20
2162.5907643022688
 30
0.0
 11
1091.0
 21
2286.1687193489579
 31
0.0
  0
LINE
  5
A2DC
  8
0
 10
1091.0
 20
2320.5907643022701
 30
0.0
 11
1091.0
 21
2444.168719348957
 31
0.0
  0
LINE
  5
A2DD
  8
0
 10
1091.0
 20
2478.5907643022688
 30
0.0
 11
1091.0
 21
2598.8307006498162
 31
0.0
  0
LINE
  5
A2DE
  8
0
 10
2007.0000000000009
 20
1038.8887575524191
 30
0.0
 11
2007.0000000000009
 21
2615.8887575524232
 31
0.0
  0
LINE
  5
A2DF
  8
0
 10
2033.0000000000009
 20
1370.5187893786469
 30
0.0
 11
2033.0000000000009
 21
1494.1687193489579
 31
0.0
  0
LINE
  5
A2E0
  8
0
 10
2033.0
 20
1528.5907643022681
 30
0.0
 11
2033.0
 21
1652.1687193489561
 31
0.0
  0
LINE
  5
A2E1
  8
0
 10
2033.0
 20
1686.5907643022699
 30
0.0
 11
2033.0
 21
1810.1687193489561
 31
0.0
  0
LINE
  5
A2E2
  8
0
 10
2033.0
 20
1844.590764302269
 30
0.0
 11
2033.0
 21
1968.168719348957
 31
0.0
  0
LINE
  5
A2E3
  8
0
 10
2033.0
 20
2002.590764302269
 30
0.0
 11
2033.0
 21
2128.168719348957
 31
0.0
  0
LINE
  5
A2E4
  8
0
 10
2033.0
 20
2162.5907643022688
 30
0.0
 11
2033.0
 21
2286.1687193489579
 31
0.0
  0
LINE
  5
A2E5
  8
0
 10
2033.0
 20
2320.5907643022701
 30
0.0
 11
2033.0
 21
2444.168719348957
 31
0.0
  0
LINE
  5
A2E6
  8
0
 10
2033.0
 20
2478.5907643022688
 30
0.0
 11
2033.0
 21
2598.6159606513579
 31
0.0
  0
LINE
  5
A2E7
  8
0
 10
2033.07259942254
 20
1336.1687193489579
 30
0.0
 11
2033.07259942254
 21
1212.5907643022661
 31
0.0
  0
LINE
  5
A2E8
  8
0
 10
2033.0725994225379
 20
1178.168719348954
 30
0.0
 11
2033.0725994225379
 21
1056.0187893786449
 31
0.0
  0
LINE
  5
A2E9
  8
0
 10
2015.7939368538421
 20
1038.8887575524191
 30
0.0
 11
2033.1451988450769
 21
1056.0907643022661
 31
0.0
  0
LINE
  5
A2EB
  8
0
 10
2015.6487380087649
 20
2461.3887575524218
 30
0.0
 11
2033.0
 21
2478.5907643022701
 31
0.0
  0
LINE
  5
A2EC
  8
0
 10
2033.0
 20
2444.168719348957
 30
0.0
 11
2015.6487380087649
 21
2461.3887575524218
 31
0.0
  0
LINE
  5
A2ED
  8
0
 10
2015.648738008766
 20
2303.3887575524218
 30
0.0
 11
2033.0000000000009
 21
2320.5907643022701
 31
0.0
  0
LINE
  5
A2EE
  8
0
 10
2033.0000000000009
 20
2286.168719348957
 30
0.0
 11
2015.648738008766
 21
2303.3887575524218
 31
0.0
  0
LINE
  5
A2EF
  8
0
 10
2015.648738008766
 20
2145.3887575524241
 30
0.0
 11
2033.0000000000009
 21
2162.5907643022701
 31
0.0
  0
LINE
  5
A2F0
  8
0
 10
2033.0000000000009
 20
2128.168719348957
 30
0.0
 11
2015.648738008766
 21
2145.3887575524241
 31
0.0
  0
LINE
  5
A2F1
  8
0
 10
2015.648738008766
 20
1985.388757552422
 30
0.0
 11
2033.0000000000009
 21
2002.5907643022699
 31
0.0
  0
LINE
  5
A2F2
  8
0
 10
2033.0000000000009
 20
1968.1687193489561
 30
0.0
 11
2015.648738008766
 21
1985.388757552422
 31
0.0
  0
LINE
  5
A2F3
  8
0
 10
2015.6487380087649
 20
1827.38875755242
 30
0.0
 11
2033.0
 21
1844.590764302269
 31
0.0
  0
LINE
  5
A2F4
  8
0
 10
2033.0
 20
1810.1687193489561
 30
0.0
 11
2015.6487380087649
 21
1827.38875755242
 31
0.0
  0
LINE
  5
A2F5
  8
0
 10
2015.6487380087649
 20
1669.388757552422
 30
0.0
 11
2033.0
 21
1686.5907643022699
 31
0.0
  0
LINE
  5
A2F6
  8
0
 10
2033.0
 20
1652.1687193489561
 30
0.0
 11
2015.6487380087649
 21
1669.388757552422
 31
0.0
  0
LINE
  5
A2F7
  8
0
 10
2015.6487380087669
 20
1511.388757552422
 30
0.0
 11
2033.000000000002
 21
1528.590764302269
 31
0.0
  0
LINE
  5
A2F8
  8
0
 10
2033.000000000002
 20
1494.1687193489561
 30
0.0
 11
2015.6487380087669
 21
1511.388757552422
 31
0.0
  0
LINE
  5
A2F9
  8
0
 10
2015.721337431306
 20
1353.388757552422
 30
0.0
 11
2033.0725994225411
 21
1370.5907643022699
 31
0.0
  0
LINE
  5
A2FA
  8
0
 10
2033.0725994225411
 20
1336.1687193489561
 30
0.0
 11
2015.721337431306
 21
1353.388757552422
 31
0.0
  0
LINE
  5
A2FB
  8
0
 10
2015.7213374313039
 20
1195.3887575524179
 30
0.0
 11
2033.072599422539
 21
1212.5907643022661
 31
0.0
  0
LINE
  5
A2FC
  8
0
 10
2033.072599422539
 20
1178.1687193489529
 30
0.0
 11
2015.7213374313039
 21
1195.3887575524179
 31
0.0
  0
LINE
  5
A33E
  8
0
 10
1108.2060631461579
 20
2635.8887575524218
 30
0.0
 11
1158.2060631461579
 21
2635.8887575524218
 31
0.0
  0
LINE
  5
A33F
  8
0
 10
1158.2060631461579
 20
2625.8887575524218
 30
0.0
 11
1108.2060631461579
 21
2625.8887575524218
 31
0.0
  0
LINE
  5
A340
  8
0
 10
1108.2060631461579
 20
2625.8887575524218
 30
0.0
 11
1108.2060631461579
 21
2635.8887575524218
 31
0.0
  0
LINE
  5
A341
  8
0
 10
1158.2060631461579
 20
2625.8887575524218
 30
0.0
 11
1158.2060631461579
 21
2635.8887575524218
 31
0.0
  0
LINE
  5
A342
  8
0
 10
2393.5
 20
2652.3887575524232
 30
0.0
 11
2393.5
 21
1002.388757552422
 31
0.0
  0
LINE
  5
A39C
  8
0
 10
2057.125
 20
2652.3887575524232
 30
0.0
 11
2157.360000000001
 21
2652.3887575524232
 31
0.0
  0
LINE
  5
A39D
  8
0
 10
2057.125
 20
1002.388757552422
 30
0.0
 11
2157.3600000000001
 21
1002.388757552422
 31
0.0
  0
LINE
  5
A39E
  8
0
 10
2157.0
 20
2582.3887575524218
 30
0.0
 11
2157.0
 21
1072.388757552422
 31
0.0
  0
INSERT
  5
A39F
  8
0
  2
_OPEN
 10
2157.0
 20
2652.3887575524232
 30
0.0
 41
70.0
 42
70.0
 43
70.0
 50
90.0
  0
INSERT
  5
A3A0
  8
0
  2
_OPEN
 10
2157.0
 20
1002.388757552422
 30
0.0
 41
70.0
 42
70.0
 43
70.0
 50
270.0
  0
INSERT
  5
A3A1
  8
0
  2
*U4
 10
0.0
 20
0.0
 30
0.0
  0
LINE
  5
A3A2
  8
0
 10
2353.5
 20
2652.5137575524218
 30
0.0
 11
2353.5
 21
2852.7487575524219
 31
0.0
  0
LINE
  5
A3A3
  8
0
 10
2393.5
 20
2652.5137575524218
 30
0.0
 11
2393.5
 21
2852.7487575524219
 31
0.0
  0
LINE
  5
A3A4
  8
0
 10
2283.5
 20
2852.3887575524218
 30
0.0
 11
2213.5
 21
2852.3887575524218
 31
0.0
  0
LINE
  5
A3A5
  8
0
 10
2463.5
 20
2852.3887575524218
 30
0.0
 11
2668.159090909091
 21
2852.3887575524218
 31
0.0
  0
LINE
  5
A3A6
  8
0
 10
2353.5
 20
2852.3887575524218
 30
0.0
 11
2393.5
 21
2852.3887575524218
 31
0.0
  0
INSERT
  5
A3A7
  8
0
  2
_OPEN
 10
2353.5
 20
2852.3887575524218
 30
0.0
 41
70.0
 42
70.0
 43
70.0
  0
INSERT
  5
A3A8
  8
0
  2
_OPEN
 10
2393.5
 20
2852.3887575524218
 30
0.0
 41
70.0
 42
70.0
 43
70.0
 50
180.0
  0
INSERT
  5
A3A9
  8
0
  2
*U5
 10
0.0
 20
0.0
 30
0.0
  0
LINE
  5
A3AA
  8
0
 10
1067.0
 20
2652.5137575524218
 30
0.0
 11
1067.0
 21
2852.7487575524219
 31
0.0
  0
LINE
  5
A3AB
  8
0
 10
2057.0
 20
2652.5137575524218
 30
0.0
 11
2057.0
 21
2852.7487575524219
 31
0.0
  0
LINE
  5
A3AC
  8
0
 10
1137.0
 20
2852.3887575524218
 30
0.0
 11
1987.0
 21
2852.3887575524218
 31
0.0
  0
INSERT
  5
A3AD
  8
0
  2
_OPEN
 10
1067.0
 20
2852.3887575524218
 30
0.0
 41
70.0
 42
70.0
 43
70.0
 50
180.0
  0
INSERT
  5
A3AE
  8
0
  2
_OPEN
 10
2057.0
 20
2852.3887575524218
 30
0.0
 41
70.0
 42
70.0
 43
70.0
  0
INSERT
  5
A3AF
  8
0
  2
*U6
 10
0.0
 20
0.0
 30
0.0
  0
TEXT
  5
A630
  8
0
 10
4674.659090909091
 20
1473.729666643331
 30
0.0
 40
40.0
  1
19.0kg
  0
VIEWPORT
  5
2C13
 67
     1
  8
0
  6
CONTINUOUS
 10
146.75686703321091
 20
116.9813994105472
 30
0.0
 40
548.26241053736464
 41
249.5086419211959
 68
     1
 69
     1
1001
ACAD
1000
MVIEW
1002
{
1070
    16
1010
0.0
1020
0.0
1030
0.0
1010
0.0
1020
0.0
1030
1.0
1040
0.0
1040
249.5086419211959
1040
146.75686703321091
1040
116.9813994105472
1040
50.0
1040
0.0
1040
0.0
1070
     0
1070
   100
1070
     1
1070
     1
1070
     0
1070
     0
1070
     0
1070
     0
1040
0.0
1040
0.0
1040
0.0
1040
10.0
1040
10.0
1040
10.0
1040
10.0
1070
     0
1002
{
1002
}
1002
}
  0
VIEWPORT
  5
2C17
 67
     1
  8
0
  6
CONTINUOUS
 10
146.75608860318869
 20
102.2232972383475
 30
0.0
 40
290.67329305026959
 41
203.874288576434
 68
     2
 69
     2
1001
ACAD
1000
MVIEW
1002
{
1070
    16
1010
0.0
1020
0.0
1030
0.0
1010
0.0
1020
0.0
1030
1.0
1040
0.0
1040
4077.4857715286789
1040
3007.1218848877838
1040
2110.1663425131101
1040
50.0
1040
0.0
1040
0.0
1070
     0
1070
   100
1070
     1
1070
     1
1070
     0
1070
     0
1070
     0
1070
     0
1040
0.0
1040
0.0
1040
0.0
1040
10.0
1040
10.0
1040
10.0
1040
10.0
1070
     0
1002
{
1002
}
1002
}
  0
ENDSEC
  0
EOF
