  0
SECTION
  2
HEADER
  9
$ACADVER
  1
AC1009
  9
$INSBASE
 10
0
 20
0
 30
0
  9
$EXTMIN
 10
0
 20
0
  9
$EXTMAX
 10
5945
 20
4205
  9
$LIMMIN
 10
0
 20
0
  9
$LIMMAX
 10
5945
 20
4205
  9
$LTSCALE
 40
5
  0
ENDSEC
  0
SECTION
  2
TABLES
  0
TABLE
  2
LTYPE
 70
     9
  0
LTYPE
  2
CONTINUOUS
 70
    64
  3
実線
 72
    65
 73
     0
 40
0.0
  0
LTYPE
  2
DASHED1
 70
    64
  3
--  --  --  --  --  --  --  --  
 72
    65
 73
     2
 40
2.5
 49
1.25
 49
-1.25
  0
LTYPE
  2
DASHED2
 70
    64
  3
----    ----    ----    ----    
 72
    65
 73
     2
 40
5.0
 49
2.5
 49
-2.5
  0
LTYPE
  2
DASHED3
 70
    64
  3
------  ------  ------  ------  
 72
    65
 73
     2
 40
5.0
 49
3.75
 49
-1.25
  0
LTYPE
  2
CENTER1
 70
    64
  3
----- - ----- - ----- - ----- - 
 72
    65
 73
     4
 40
10.0
 49
6.25
 49
-1.25
 49
1.25
 49
-1.25
  0
LTYPE
  2
CENTER2
 70
    64
  3
----------  --  ----------  --  
 72
    65
 73
     4
 40
20.0
 49
12.5
 49
-2.5
 49
2.5
 49
-2.5
  0
LTYPE
  2
PHANTOM1
 70
    64
  3
--- - - --- - - --- - - --- - - 
 72
    65
 73
     6
 40
10.0
 49
3.25
 49
-1.25
 49
1.25
 49
-1.25
 49
1.25
 49
-1.25
  0
LTYPE
  2
PHANTOM2
 70
    64
  3
--------  -  -  --------  -  -  
 72
    65
 73
     6
 40
20.0
 49
10.0
 49
-2.5
 49
1.25
 49
-2.5
 49
1.25
 49
-2.5
  0
LTYPE
  2
DOT
 70
    64
  3
-   -   -   -   -   -   -   -   
 72
    65
 73
     2
 40
2.5
 49
0.625
 49
-1.875
  0
LTYPE
  2
DUMMY
 70
    64
  3
ダミー
 72
    65
 73
     0
 40
0.0
  0
LTYPE
  2
RAND1
 70
    64
  3
ランダム線1
 72
    65
 73
     4
 40
10.0
 49
1.0
 49
-2.0
 49
3.0
 49
-4.0
  0
LTYPE
  2
RAND2
 70
    64
  3
ランダム線2
 72
    65
 73
     4
 40
14.0
 49
2.0
 49
-3.0
 49
4.0
 49
-5.0
  0
LTYPE
  2
RAND3
 70
    64
  3
ランダム線3
 72
    65
 73
     4
 40
18.0
 49
3.0
 49
-4.0
 49
5.0
 49
-6.0
  0
LTYPE
  2
RAND4
 70
    64
  3
ランダム線4
 72
    65
 73
     4
 40
22.0
 49
4.0
 49
-5.0
 49
6.0
 49
-7.0
  0
LTYPE
  2
RAND5
 70
    64
  3
ランダム線5
 72
    65
 73
     4
 40
26.0
 49
5.0
 49
-6.0
 49
7.0
 49
-8.0
  0
LTYPE
  2
LONG1
 70
    64
  3
----------  --  ----------  --  
 72
    65
 73
     4
 40
40.0
 49
32.5
 49
-2.5
 49
2.5
 49
-2.5
  0
LTYPE
  2
LONG2
 70
    64
  3
--------  -  -  --------  -  -  
 72
    65
 73
     6
 40
40.0
 49
30.0
 49
-2.5
 49
1.25
 49
-2.5
 49
1.25
 49
-2.5
  0
LTYPE
  2
LONG3
 70
    64
  3
+++++++++++++++..+++++++++++++++
 72
    65
 73
     2
 40
40.0
 49
37.5
 49
-2.5
  0
LTYPE
  2
LONG4
 70
    64
  3
+++++++++++++++..+++++++++++++++
 72
    65
 73
     2
 40
80.0
 49
75.0
 49
-5.0
  0
LTYPE
  2
LONG5
 70
    64
  3
----------  --  ----------  --  
 72
    65
 73
     4
 40
60.0
 49
37.5
 49
-7.5
 49
7.5
 49
-7.5
  0
LTYPE
  2
dashed
 70
   64
  3
-------   -------------   ------
 72
   65
 73
    2
 40
7.5
 49
6
 49
-1.5
  0
LTYPE
  2
dashed_spaced
 70
   64
  3
----        --------        ----
 72
   65
 73
    2
 40
12
 49
6
 49
-6
  0
LTYPE
  2
long_dashed_dotted
 70
   64
  3
------------- --- --------------
 72
   65
 73
    4
 40
15.25
 49
12
 49
-1.5
 49
0.25
 49
-1.5
  0
LTYPE
  2
long_dashed_double-dotted
 70
   64
  3
----------- --- --- ------------
 72
   65
 73
    6
 40
17
 49
12
 49
-1.5
 49
0.25
 49
-1.5
 49
0.25
 49
-1.5
  0
LTYPE
  2
long_dashed_triplicate-dotted
 70
   64
  3
--------- --- --- --- ----------
 72
   65
 73
    8
 40
18.75
 49
12
 49
-1.5
 49
0.25
 49
-1.5
 49
0.25
 49
-1.5
 49
0.25
 49
-1.5
  0
LTYPE
  2
dotted
 70
   64
  3
   -       -       -       -    
 72
   65
 73
    2
 40
1.75
 49
0.25
 49
-1.5
  0
LTYPE
  2
chain
 70
   64
  3
-------------- -- --------------
 72
   65
 73
    4
 40
18.5
 49
12
 49
-1.5
 49
3.5
 49
-1.5
  0
LTYPE
  2
chain_double_dash
 70
   64
  3
------------ -- -- -------------
 72
   65
 73
    6
 40
23.5
 49
12
 49
-1.5
 49
3.5
 49
-1.5
 49
3.5
 49
-1.5
  0
LTYPE
  2
dashed_dotted
 70
   64
  3
-----------     -     ----------
 72
   65
 73
    4
 40
9.25
 49
6
 49
-1.5
 49
0.25
 49
-1.5
  0
LTYPE
  2
double-dashed_dotted
 70
   64
  3
------   -----------   -   -----
 72
   65
 73
    6
 40
16.75
 49
6
 49
-1.5
 49
6
 49
-1.5
 49
0.25
 49
-1.5
  0
LTYPE
  2
dashed_double-dotted
 70
   64
  3
---------    -    -    ---------
 72
   65
 73
    6
 40
11
 49
6
 49
-1.5
 49
0.25
 49
-1.5
 49
0.25
 49
-1.5
  0
LTYPE
  2
double-dashed_double-dotted
 70
   64
  3
-----   ---------   -   -   ----
 72
   65
 73
    8
 40
18.5
 49
6
 49
-1.5
 49
6
 49
-1.5
 49
0.25
 49
-1.5
 49
0.25
 49
-1.5
  0
LTYPE
  2
dashed_triplicate-dotted
 70
   64
  3
-------    -    -    -    ------
 72
   65
 73
    8
 40
12.75
 49
6
 49
-1.5
 49
0.25
 49
-1.5
 49
0.25
 49
-1.5
 49
0.25
 49
-1.5
  0
LTYPE
  2
double-dashed_triplicate-dotted
 70
   64
  3
-----  ---------  -  -  -  -----
 72
   65
 73
   10
 40
20.25
 49
6
 49
-1.5
 49
6
 49
-1.5
 49
0.25
 49
-1.5
 49
0.25
 49
-1.5
 49
0.25
 49
-1.5
  0
LTYPE
  2
undefined
 70
   64
  3
--------------------------------
 72
   65
 73
    0
 40
0
  0
ENDTAB
  0
TABLE
  2
STYLE
  5
3
100
AcDbSymbolTable
 70
     1
  0
STYLE
  5
10
100
AcDbSymbolTableRecord
100
AcDbTextStyleTableRecord
  2
STANDARD
 70
     0
 40
0.0
 41
1.0
 50
0.0
 71
     0
 42
0.2
  3
txt
  4
bigfont.shx
  0
STYLE
  5
26
100
AcDbSymbolTableRecord
100
AcDbTextStyleTableRecord
  2
TATEGAKI
 70
    68
 40
0.0
 41
1.0
 50
0.0
 71
     0
 42
1.0
  3
txt
  4
bigfont.shx
  0
ENDTAB
  0
TABLE
  2
LAYER
 70
    4
  0
LAYER
  2
_0-0_0
 70
   64
 62
    7
  6
CONTINUOUS
  0
LAYER
  2
_0-2_用紙枠
 70
   64
 62
    7
  6
CONTINUOUS
  0
LAYER
  2
_0-3_図面枠
 70
   64
 62
    7
  6
CONTINUOUS
  0
LAYER
  2
ADD_LINE
 70
   64
 62
    7
  6
CONTINUOUS
  0
ENDTAB
  0
ENDSEC
  0
SECTION
  2
BLOCKS
  0
ENDSEC
  0
SECTION
  2
ENTITIES
  0
LINE
  8
_0-3_図面枠
  6
CONTINUOUS
 62
    7
 10
5742.5
 20
3789.2775151048445
 11
402.5
 21
3789.2775151048445
  0
TEXT
  8
_0-3_図面枠
 62
    7
 10
502.5
 20
3839.2775151048445
 40
100
 41
1
 50
0
  1
太陽電池モジュール　SPR-125NE-WHT-J
  0
LINE
  8
_0-0_0
  6
CONTINUOUS
 62
    7
 10
1963.9999676089992
 20
1596.888757552422
 11
1165.0000093564818
 21
1596.888757552422
  0
LINE
  8
_0-0_0
  6
CONTINUOUS
 62
    7
 10
1165.0000093564818
 20
1596.888757552422
 11
1165.0000093564818
 21
2394.8887575524218
  0
LINE
  8
_0-0_0
  6
CONTINUOUS
 62
    7
 10
1165.0000093564818
 20
2394.8887575524218
 11
1963.9999676089992
 21
2394.8887575524218
  0
LINE
  8
_0-0_0
  6
CONTINUOUS
 62
    7
 10
1963.9999676089992
 20
2394.8887575524218
 11
1963.9999676089992
 21
1596.888757552422
  0
LINE
  8
_0-0_0
  6
CONTINUOUS
 62
    7
 10
1172.287555265676
 20
1604.065275990595
 11
1172.287555265676
 21
2387.712239114242
  0
LINE
  8
_0-0_0
  6
CONTINUOUS
 62
    7
 10
1172.287555265676
 20
2387.712239114242
 11
1956.6941571737589
 21
2387.712239114242
  0
LINE
  8
_0-0_0
  6
CONTINUOUS
 62
    7
 10
1956.6941571737589
 20
2387.712239114242
 11
1956.6941571737589
 21
1604.065275990595
  0
LINE
  8
_0-0_0
  6
CONTINUOUS
 62
    7
 10
1956.6941571737589
 20
1604.065275990595
 11
1172.287555265676
 21
1604.065275990595
  0
LINE
  8
_0-0_0
  6
CONTINUOUS
 62
    7
 10
1307.70075168327
 20
2363.315682715112
 11
1307.70075168327
 21
2269.552125231372
  0
LINE
  8
_0-0_0
  6
CONTINUOUS
 62
    7
 10
1307.70075168327
 20
2269.552125231372
 11
1289.9476323255849
 21
2252.332087270423
  0
LINE
  8
_0-0_0
  6
CONTINUOUS
 62
    7
 10
1289.9476323255849
 20
2252.332087270423
 11
1196.7620202238099
 21
2252.332087270423
  0
LINE
  8
_0-0_0
  6
CONTINUOUS
 62
    7
 10
1196.7620202238099
 20
2252.332087270423
 11
1179.3011332835281
 21
2269.552125231372
  0
LINE
  8
_0-0_0
  6
CONTINUOUS
 62
    7
 10
1179.3011332835281
 20
2269.552125231372
 11
1179.3011332835281
 21
2363.315682715112
  0
LINE
  8
_0-0_0
  6
CONTINUOUS
 62
    7
 10
1179.3011332835281
 20
2363.315682715112
 11
1196.7620202238099
 21
2380.5447364027441
  0
LINE
  8
_0-0_0
  6
CONTINUOUS
 62
    7
 10
1196.7620202238099
 20
2380.5447364027441
 11
1289.9476323255849
 21
2380.5447364027441
  0
LINE
  8
_0-0_0
  6
CONTINUOUS
 62
    7
 10
1289.9476323255849
 20
2380.5447364027441
 11
1307.70075168327
 21
2363.315682715112
  0
LINE
  8
_0-0_0
  6
CONTINUOUS
 62
    7
 10
1436.1003700829979
 20
2363.315682715112
 11
1436.1003700829979
 21
2269.552125231372
  0
LINE
  8
_0-0_0
  6
CONTINUOUS
 62
    7
 10
1436.1003700829979
 20
2269.552125231372
 11
1418.3472507253127
 21
2252.332087270423
  0
LINE
  8
_0-0_0
  6
CONTINUOUS
 62
    7
 10
1418.3472507253127
 20
2252.332087270423
 11
1325.1616386235532
 21
2252.332087270423
  0
LINE
  8
_0-0_0
  6
CONTINUOUS
 62
    7
 10
1325.1616386235532
 20
2252.332087270423
 11
1307.70075168327
 21
2269.552125231372
  0
LINE
  8
_0-0_0
  6
CONTINUOUS
 62
    7
 10
1307.70075168327
 20
2269.552125231372
 11
1307.70075168327
 21
2363.315682715112
  0
LINE
  8
_0-0_0
  6
CONTINUOUS
 62
    7
 10
1307.70075168327
 20
2363.315682715112
 11
1325.1616386235532
 21
2380.5447364027441
  0
LINE
  8
_0-0_0
  6
CONTINUOUS
 62
    7
 10
1325.1616386235532
 20
2380.5447364027441
 11
1418.3472507253127
 21
2380.5447364027441
  0
LINE
  8
_0-0_0
  6
CONTINUOUS
 62
    7
 10
1418.3472507253127
 20
2380.5447364027441
 11
1436.1003700829979
 21
2363.315682715112
  0
LINE
  8
_0-0_0
  6
CONTINUOUS
 62
    7
 10
1564.4086658523031
 20
2363.315682715112
 11
1564.4086658523031
 21
2269.552125231372
  0
LINE
  8
_0-0_0
  6
CONTINUOUS
 62
    7
 10
1564.4086658523031
 20
2269.552125231372
 11
1546.6555464946171
 21
2252.332087270423
  0
LINE
  8
_0-0_0
  6
CONTINUOUS
 62
    7
 10
1546.6555464946171
 20
2252.332087270423
 11
1453.4699343928428
 21
2252.332087270423
  0
LINE
  8
_0-0_0
  6
CONTINUOUS
 62
    7
 10
1453.4699343928428
 20
2252.332087270423
 11
1436.0455765047418
 21
2269.552125231372
  0
LINE
  8
_0-0_0
  6
CONTINUOUS
 62
    7
 10
1436.0455765047418
 20
2269.552125231372
 11
1436.0455765047418
 21
2363.315682715112
  0
LINE
  8
_0-0_0
  6
CONTINUOUS
 62
    7
 10
1436.0455765047418
 20
2363.315682715112
 11
1453.4699343928428
 21
2380.5447364027441
  0
LINE
  8
_0-0_0
  6
CONTINUOUS
 62
    7
 10
1453.4699343928428
 20
2380.5447364027441
 11
1546.6555464946171
 21
2380.5447364027441
  0
LINE
  8
_0-0_0
  6
CONTINUOUS
 62
    7
 10
1546.6555464946171
 20
2380.5447364027441
 11
1564.4086658523031
 21
2363.315682715112
  0
LINE
  8
_0-0_0
  6
CONTINUOUS
 62
    7
 10
1692.7169616216229
 20
2363.315682715112
 11
1692.7169616216229
 21
2269.552125231372
  0
LINE
  8
_0-0_0
  6
CONTINUOUS
 62
    7
 10
1692.7169616216229
 20
2269.552125231372
 11
1674.9638422639371
 21
2252.332087270423
  0
LINE
  8
_0-0_0
  6
CONTINUOUS
 62
    7
 10
1674.9638422639371
 20
2252.332087270423
 11
1581.7964946882239
 21
2252.332087270423
  0
LINE
  8
_0-0_0
  6
CONTINUOUS
 62
    7
 10
1581.7964946882239
 20
2252.332087270423
 11
1564.353872274032
 21
2269.552125231372
  0
LINE
  8
_0-0_0
  6
CONTINUOUS
 62
    7
 10
1564.353872274032
 20
2269.552125231372
 11
1564.353872274032
 21
2363.315682715112
  0
LINE
  8
_0-0_0
  6
CONTINUOUS
 62
    7
 10
1564.353872274032
 20
2363.315682715112
 11
1581.7964946882239
 21
2380.5447364027441
  0
LINE
  8
_0-0_0
  6
CONTINUOUS
 62
    7
 10
1581.7964946882239
 20
2380.5447364027441
 11
1674.9638422639371
 21
2380.5447364027441
  0
LINE
  8
_0-0_0
  6
CONTINUOUS
 62
    7
 10
1674.9638422639371
 20
2380.5447364027441
 11
1692.7169616216229
 21
2363.315682715112
  0
LINE
  8
_0-0_0
  6
CONTINUOUS
 62
    7
 10
1821.0617864430942
 20
2363.315682715112
 11
1821.0617864430942
 21
2269.552125231372
  0
LINE
  8
_0-0_0
  6
CONTINUOUS
 62
    7
 10
1821.0617864430942
 20
2269.552125231372
 11
1803.3086670854077
 21
2252.332087270423
  0
LINE
  8
_0-0_0
  6
CONTINUOUS
 62
    7
 10
1803.3086670854077
 20
2252.332087270423
 11
1710.1047904575289
 21
2252.332087270423
  0
LINE
  8
_0-0_0
  6
CONTINUOUS
 62
    7
 10
1710.1047904575289
 20
2252.332087270423
 11
1692.680432569442
 21
2269.552125231372
  0
LINE
  8
_0-0_0
  6
CONTINUOUS
 62
    7
 10
1692.680432569442
 20
2269.552125231372
 11
1692.680432569442
 21
2363.315682715112
  0
LINE
  8
_0-0_0
  6
CONTINUOUS
 62
    7
 10
1692.680432569442
 20
2363.315682715112
 11
1710.1047904575289
 21
2380.5447364027441
  0
LINE
  8
_0-0_0
  6
CONTINUOUS
 62
    7
 10
1710.1047904575289
 20
2380.5447364027441
 11
1803.3086670854077
 21
2380.5447364027441
  0
LINE
  8
_0-0_0
  6
CONTINUOUS
 62
    7
 10
1803.3086670854077
 20
2380.5447364027441
 11
1821.0617864430942
 21
2363.315682715112
  0
LINE
  8
_0-0_0
  6
CONTINUOUS
 62
    7
 10
1949.388346738474
 20
2363.315682715112
 11
1949.388346738474
 21
2269.552125231372
  0
LINE
  8
_0-0_0
  6
CONTINUOUS
 62
    7
 10
1949.388346738474
 20
2269.552125231372
 11
1931.598698328608
 21
2252.332087270423
  0
LINE
  8
_0-0_0
  6
CONTINUOUS
 62
    7
 10
1931.598698328608
 20
2252.332087270423
 11
1838.4496152790291
 21
2252.332087270423
  0
LINE
  8
_0-0_0
  6
CONTINUOUS
 62
    7
 10
1838.4496152790291
 20
2252.332087270423
 11
1820.988728338732
 21
2269.552125231372
  0
LINE
  8
_0-0_0
  6
CONTINUOUS
 62
    7
 10
1820.988728338732
 20
2269.552125231372
 11
1820.988728338732
 21
2363.315682715112
  0
LINE
  8
_0-0_0
  6
CONTINUOUS
 62
    7
 10
1820.988728338732
 20
2363.315682715112
 11
1838.4496152790291
 21
2380.5447364027441
  0
LINE
  8
_0-0_0
  6
CONTINUOUS
 62
    7
 10
1838.4496152790291
 20
2380.5447364027441
 11
1931.598698328608
 21
2380.5447364027441
  0
LINE
  8
_0-0_0
  6
CONTINUOUS
 62
    7
 10
1931.598698328608
 20
2380.5447364027441
 11
1949.388346738474
 21
2363.315682715112
  0
LINE
  8
_0-0_0
  6
CONTINUOUS
 62
    7
 10
1307.70075168327
 20
2235.1120493094659
 11
1307.70075168327
 21
2141.34849182574
  0
LINE
  8
_0-0_0
  6
CONTINUOUS
 62
    7
 10
1307.70075168327
 20
2141.34849182574
 11
1289.9476323255849
 21
2124.1104224114192
  0
LINE
  8
_0-0_0
  6
CONTINUOUS
 62
    7
 10
1289.9476323255849
 20
2124.1104224114192
 11
1196.7620202238099
 21
2124.1104224114192
  0
LINE
  8
_0-0_0
  6
CONTINUOUS
 62
    7
 10
1196.7620202238099
 20
2124.1104224114192
 11
1179.3011332835281
 21
2141.34849182574
  0
LINE
  8
_0-0_0
  6
CONTINUOUS
 62
    7
 10
1179.3011332835281
 20
2141.34849182574
 11
1179.3011332835281
 21
2235.1120493094659
  0
LINE
  8
_0-0_0
  6
CONTINUOUS
 62
    7
 10
1179.3011332835281
 20
2235.1120493094659
 11
1196.7620202238099
 21
2252.3501187237871
  0
LINE
  8
_0-0_0
  6
CONTINUOUS
 62
    7
 10
1196.7620202238099
 20
2252.3501187237871
 11
1289.9476323255849
 21
2252.3501187237871
  0
LINE
  8
_0-0_0
  6
CONTINUOUS
 62
    7
 10
1289.9476323255849
 20
2252.3501187237871
 11
1307.70075168327
 21
2235.1120493094659
  0
LINE
  8
_0-0_0
  6
CONTINUOUS
 62
    7
 10
1436.1003700829979
 20
2235.1120493094659
 11
1436.1003700829979
 21
2141.34849182574
  0
LINE
  8
_0-0_0
  6
CONTINUOUS
 62
    7
 10
1436.1003700829979
 20
2141.34849182574
 11
1418.3472507253127
 21
2124.1104224114192
  0
LINE
  8
_0-0_0
  6
CONTINUOUS
 62
    7
 10
1418.3472507253127
 20
2124.1104224114192
 11
1325.1616386235532
 21
2124.1104224114192
  0
LINE
  8
_0-0_0
  6
CONTINUOUS
 62
    7
 10
1325.1616386235532
 20
2124.1104224114192
 11
1307.70075168327
 21
2141.34849182574
  0
LINE
  8
_0-0_0
  6
CONTINUOUS
 62
    7
 10
1307.70075168327
 20
2141.34849182574
 11
1307.70075168327
 21
2235.1120493094659
  0
LINE
  8
_0-0_0
  6
CONTINUOUS
 62
    7
 10
1307.70075168327
 20
2235.1120493094659
 11
1325.1616386235532
 21
2252.3501187237871
  0
LINE
  8
_0-0_0
  6
CONTINUOUS
 62
    7
 10
1325.1616386235532
 20
2252.3501187237871
 11
1418.3472507253127
 21
2252.3501187237871
  0
LINE
  8
_0-0_0
  6
CONTINUOUS
 62
    7
 10
1418.3472507253127
 20
2252.3501187237871
 11
1436.1003700829979
 21
2235.1120493094659
  0
LINE
  8
_0-0_0
  6
CONTINUOUS
 62
    7
 10
1564.4086658523031
 20
2235.1120493094659
 11
1564.4086658523031
 21
2141.34849182574
  0
LINE
  8
_0-0_0
  6
CONTINUOUS
 62
    7
 10
1564.4086658523031
 20
2141.34849182574
 11
1546.6555464946171
 21
2124.1104224114192
  0
LINE
  8
_0-0_0
  6
CONTINUOUS
 62
    7
 10
1546.6555464946171
 20
2124.1104224114192
 11
1453.4699343928428
 21
2124.1104224114192
  0
LINE
  8
_0-0_0
  6
CONTINUOUS
 62
    7
 10
1453.4699343928428
 20
2124.1104224114192
 11
1436.0455765047418
 21
2141.34849182574
  0
LINE
  8
_0-0_0
  6
CONTINUOUS
 62
    7
 10
1436.0455765047418
 20
2141.34849182574
 11
1436.0455765047418
 21
2235.1120493094659
  0
LINE
  8
_0-0_0
  6
CONTINUOUS
 62
    7
 10
1436.0455765047418
 20
2235.1120493094659
 11
1453.4699343928428
 21
2252.3501187237871
  0
LINE
  8
_0-0_0
  6
CONTINUOUS
 62
    7
 10
1453.4699343928428
 20
2252.3501187237871
 11
1546.6555464946171
 21
2252.3501187237871
  0
LINE
  8
_0-0_0
  6
CONTINUOUS
 62
    7
 10
1546.6555464946171
 20
2252.3501187237871
 11
1564.4086658523031
 21
2235.1120493094659
  0
LINE
  8
_0-0_0
  6
CONTINUOUS
 62
    7
 10
1692.7169616216229
 20
2235.1120493094659
 11
1692.7169616216229
 21
2141.34849182574
  0
LINE
  8
_0-0_0
  6
CONTINUOUS
 62
    7
 10
1692.7169616216229
 20
2141.34849182574
 11
1674.9638422639371
 21
2124.1104224114192
  0
LINE
  8
_0-0_0
  6
CONTINUOUS
 62
    7
 10
1674.9638422639371
 20
2124.1104224114192
 11
1581.7964946882239
 21
2124.1104224114192
  0
LINE
  8
_0-0_0
  6
CONTINUOUS
 62
    7
 10
1581.7964946882239
 20
2124.1104224114192
 11
1564.353872274032
 21
2141.34849182574
  0
LINE
  8
_0-0_0
  6
CONTINUOUS
 62
    7
 10
1564.353872274032
 20
2141.34849182574
 11
1564.353872274032
 21
2235.1120493094659
  0
LINE
  8
_0-0_0
  6
CONTINUOUS
 62
    7
 10
1564.353872274032
 20
2235.1120493094659
 11
1581.7964946882239
 21
2252.3501187237871
  0
LINE
  8
_0-0_0
  6
CONTINUOUS
 62
    7
 10
1581.7964946882239
 20
2252.3501187237871
 11
1674.9638422639371
 21
2252.3501187237871
  0
LINE
  8
_0-0_0
  6
CONTINUOUS
 62
    7
 10
1674.9638422639371
 20
2252.3501187237871
 11
1692.7169616216229
 21
2235.1120493094659
  0
LINE
  8
_0-0_0
  6
CONTINUOUS
 62
    7
 10
1821.0617864430942
 20
2235.1120493094659
 11
1821.0617864430942
 21
2141.34849182574
  0
LINE
  8
_0-0_0
  6
CONTINUOUS
 62
    7
 10
1821.0617864430942
 20
2141.34849182574
 11
1803.3086670854077
 21
2124.1104224114192
  0
LINE
  8
_0-0_0
  6
CONTINUOUS
 62
    7
 10
1803.3086670854077
 20
2124.1104224114192
 11
1710.1047904575289
 21
2124.1104224114192
  0
LINE
  8
_0-0_0
  6
CONTINUOUS
 62
    7
 10
1710.1047904575289
 20
2124.1104224114192
 11
1692.680432569442
 21
2141.34849182574
  0
LINE
  8
_0-0_0
  6
CONTINUOUS
 62
    7
 10
1692.680432569442
 20
2141.34849182574
 11
1692.680432569442
 21
2235.1120493094659
  0
LINE
  8
_0-0_0
  6
CONTINUOUS
 62
    7
 10
1692.680432569442
 20
2235.1120493094659
 11
1710.1047904575289
 21
2252.3501187237871
  0
LINE
  8
_0-0_0
  6
CONTINUOUS
 62
    7
 10
1710.1047904575289
 20
2252.3501187237871
 11
1803.3086670854077
 21
2252.3501187237871
  0
LINE
  8
_0-0_0
  6
CONTINUOUS
 62
    7
 10
1803.3086670854077
 20
2252.3501187237871
 11
1821.0617864430942
 21
2235.1120493094659
  0
LINE
  8
_0-0_0
  6
CONTINUOUS
 62
    7
 10
1949.388346738474
 20
2235.1120493094659
 11
1949.388346738474
 21
2141.34849182574
  0
LINE
  8
_0-0_0
  6
CONTINUOUS
 62
    7
 10
1949.388346738474
 20
2141.34849182574
 11
1931.598698328608
 21
2124.1104224114192
  0
LINE
  8
_0-0_0
  6
CONTINUOUS
 62
    7
 10
1931.598698328608
 20
2124.1104224114192
 11
1838.4496152790291
 21
2124.1104224114192
  0
LINE
  8
_0-0_0
  6
CONTINUOUS
 62
    7
 10
1838.4496152790291
 20
2124.1104224114192
 11
1820.988728338732
 21
2141.34849182574
  0
LINE
  8
_0-0_0
  6
CONTINUOUS
 62
    7
 10
1820.988728338732
 20
2141.34849182574
 11
1820.988728338732
 21
2235.1120493094659
  0
LINE
  8
_0-0_0
  6
CONTINUOUS
 62
    7
 10
1820.988728338732
 20
2235.1120493094659
 11
1838.4496152790291
 21
2252.3501187237871
  0
LINE
  8
_0-0_0
  6
CONTINUOUS
 62
    7
 10
1838.4496152790291
 20
2252.3501187237871
 11
1931.598698328608
 21
2252.3501187237871
  0
LINE
  8
_0-0_0
  6
CONTINUOUS
 62
    7
 10
1931.598698328608
 20
2252.3501187237871
 11
1949.388346738474
 21
2235.1120493094659
  0
LINE
  8
_0-0_0
  6
CONTINUOUS
 62
    7
 10
1307.70075168327
 20
2106.9084159038339
 11
1307.70075168327
 21
2013.1448584201009
  0
LINE
  8
_0-0_0
  6
CONTINUOUS
 62
    7
 10
1307.70075168327
 20
2013.1448584201009
 11
1289.9476323255849
 21
1995.906789005787
  0
LINE
  8
_0-0_0
  6
CONTINUOUS
 62
    7
 10
1289.9476323255849
 20
1995.906789005787
 11
1196.7620202238099
 21
1995.906789005787
  0
LINE
  8
_0-0_0
  6
CONTINUOUS
 62
    7
 10
1196.7620202238099
 20
1995.906789005787
 11
1179.3011332835281
 21
2013.1448584201009
  0
LINE
  8
_0-0_0
  6
CONTINUOUS
 62
    7
 10
1179.3011332835281
 20
2013.1448584201009
 11
1179.3011332835281
 21
2106.9084159038339
  0
LINE
  8
_0-0_0
  6
CONTINUOUS
 62
    7
 10
1179.3011332835281
 20
2106.9084159038339
 11
1196.7620202238099
 21
2124.1284538647828
  0
LINE
  8
_0-0_0
  6
CONTINUOUS
 62
    7
 10
1196.7620202238099
 20
2124.1284538647828
 11
1289.9476323255849
 21
2124.1284538647828
  0
LINE
  8
_0-0_0
  6
CONTINUOUS
 62
    7
 10
1289.9476323255849
 20
2124.1284538647828
 11
1307.70075168327
 21
2106.9084159038339
  0
LINE
  8
_0-0_0
  6
CONTINUOUS
 62
    7
 10
1436.1003700829979
 20
2106.9084159038339
 11
1436.1003700829979
 21
2013.1448584201009
  0
LINE
  8
_0-0_0
  6
CONTINUOUS
 62
    7
 10
1436.1003700829979
 20
2013.1448584201009
 11
1418.3472507253127
 21
1995.906789005787
  0
LINE
  8
_0-0_0
  6
CONTINUOUS
 62
    7
 10
1418.3472507253127
 20
1995.906789005787
 11
1325.1616386235532
 21
1995.906789005787
  0
LINE
  8
_0-0_0
  6
CONTINUOUS
 62
    7
 10
1325.1616386235532
 20
1995.906789005787
 11
1307.70075168327
 21
2013.1448584201009
  0
LINE
  8
_0-0_0
  6
CONTINUOUS
 62
    7
 10
1307.70075168327
 20
2013.1448584201009
 11
1307.70075168327
 21
2106.9084159038339
  0
LINE
  8
_0-0_0
  6
CONTINUOUS
 62
    7
 10
1307.70075168327
 20
2106.9084159038339
 11
1325.1616386235532
 21
2124.1284538647828
  0
LINE
  8
_0-0_0
  6
CONTINUOUS
 62
    7
 10
1325.1616386235532
 20
2124.1284538647828
 11
1418.3472507253127
 21
2124.1284538647828
  0
LINE
  8
_0-0_0
  6
CONTINUOUS
 62
    7
 10
1418.3472507253127
 20
2124.1284538647828
 11
1436.1003700829979
 21
2106.9084159038339
  0
LINE
  8
_0-0_0
  6
CONTINUOUS
 62
    7
 10
1564.4086658523031
 20
2106.9084159038339
 11
1564.4086658523031
 21
2013.1448584201009
  0
LINE
  8
_0-0_0
  6
CONTINUOUS
 62
    7
 10
1564.4086658523031
 20
2013.1448584201009
 11
1546.6555464946171
 21
1995.906789005787
  0
LINE
  8
_0-0_0
  6
CONTINUOUS
 62
    7
 10
1546.6555464946171
 20
1995.906789005787
 11
1453.4699343928428
 21
1995.906789005787
  0
LINE
  8
_0-0_0
  6
CONTINUOUS
 62
    7
 10
1453.4699343928428
 20
1995.906789005787
 11
1436.0455765047418
 21
2013.1448584201009
  0
LINE
  8
_0-0_0
  6
CONTINUOUS
 62
    7
 10
1436.0455765047418
 20
2013.1448584201009
 11
1436.0455765047418
 21
2106.9084159038339
  0
LINE
  8
_0-0_0
  6
CONTINUOUS
 62
    7
 10
1436.0455765047418
 20
2106.9084159038339
 11
1453.4699343928428
 21
2124.1284538647828
  0
LINE
  8
_0-0_0
  6
CONTINUOUS
 62
    7
 10
1453.4699343928428
 20
2124.1284538647828
 11
1546.6555464946171
 21
2124.1284538647828
  0
LINE
  8
_0-0_0
  6
CONTINUOUS
 62
    7
 10
1546.6555464946171
 20
2124.1284538647828
 11
1564.4086658523031
 21
2106.9084159038339
  0
LINE
  8
_0-0_0
  6
CONTINUOUS
 62
    7
 10
1692.7169616216229
 20
2106.9084159038339
 11
1692.7169616216229
 21
2013.1448584201009
  0
LINE
  8
_0-0_0
  6
CONTINUOUS
 62
    7
 10
1692.7169616216229
 20
2013.1448584201009
 11
1674.9638422639371
 21
1995.906789005787
  0
LINE
  8
_0-0_0
  6
CONTINUOUS
 62
    7
 10
1674.9638422639371
 20
1995.906789005787
 11
1581.7964946882239
 21
1995.906789005787
  0
LINE
  8
_0-0_0
  6
CONTINUOUS
 62
    7
 10
1581.7964946882239
 20
1995.906789005787
 11
1564.353872274032
 21
2013.1448584201009
  0
LINE
  8
_0-0_0
  6
CONTINUOUS
 62
    7
 10
1564.353872274032
 20
2013.1448584201009
 11
1564.353872274032
 21
2106.9084159038339
  0
LINE
  8
_0-0_0
  6
CONTINUOUS
 62
    7
 10
1564.353872274032
 20
2106.9084159038339
 11
1581.7964946882239
 21
2124.1284538647828
  0
LINE
  8
_0-0_0
  6
CONTINUOUS
 62
    7
 10
1581.7964946882239
 20
2124.1284538647828
 11
1674.9638422639371
 21
2124.1284538647828
  0
LINE
  8
_0-0_0
  6
CONTINUOUS
 62
    7
 10
1674.9638422639371
 20
2124.1284538647828
 11
1692.7169616216229
 21
2106.9084159038339
  0
LINE
  8
_0-0_0
  6
CONTINUOUS
 62
    7
 10
1821.0617864430942
 20
2106.9084159038339
 11
1821.0617864430942
 21
2013.1448584201009
  0
LINE
  8
_0-0_0
  6
CONTINUOUS
 62
    7
 10
1821.0617864430942
 20
2013.1448584201009
 11
1803.3086670854077
 21
1995.906789005787
  0
LINE
  8
_0-0_0
  6
CONTINUOUS
 62
    7
 10
1803.3086670854077
 20
1995.906789005787
 11
1710.1047904575289
 21
1995.906789005787
  0
LINE
  8
_0-0_0
  6
CONTINUOUS
 62
    7
 10
1710.1047904575289
 20
1995.906789005787
 11
1692.680432569442
 21
2013.1448584201009
  0
LINE
  8
_0-0_0
  6
CONTINUOUS
 62
    7
 10
1692.680432569442
 20
2013.1448584201009
 11
1692.680432569442
 21
2106.9084159038339
  0
LINE
  8
_0-0_0
  6
CONTINUOUS
 62
    7
 10
1692.680432569442
 20
2106.9084159038339
 11
1710.1047904575289
 21
2124.1284538647828
  0
LINE
  8
_0-0_0
  6
CONTINUOUS
 62
    7
 10
1710.1047904575289
 20
2124.1284538647828
 11
1803.3086670854077
 21
2124.1284538647828
  0
LINE
  8
_0-0_0
  6
CONTINUOUS
 62
    7
 10
1803.3086670854077
 20
2124.1284538647828
 11
1821.0617864430942
 21
2106.9084159038339
  0
LINE
  8
_0-0_0
  6
CONTINUOUS
 62
    7
 10
1949.388346738474
 20
2106.9084159038339
 11
1949.388346738474
 21
2013.1448584201009
  0
LINE
  8
_0-0_0
  6
CONTINUOUS
 62
    7
 10
1949.388346738474
 20
2013.1448584201009
 11
1931.598698328608
 21
1995.906789005787
  0
LINE
  8
_0-0_0
  6
CONTINUOUS
 62
    7
 10
1931.598698328608
 20
1995.906789005787
 11
1838.4496152790291
 21
1995.906789005787
  0
LINE
  8
_0-0_0
  6
CONTINUOUS
 62
    7
 10
1838.4496152790291
 20
1995.906789005787
 11
1820.988728338732
 21
2013.1448584201009
  0
LINE
  8
_0-0_0
  6
CONTINUOUS
 62
    7
 10
1820.988728338732
 20
2013.1448584201009
 11
1820.988728338732
 21
2106.9084159038339
  0
LINE
  8
_0-0_0
  6
CONTINUOUS
 62
    7
 10
1820.988728338732
 20
2106.9084159038339
 11
1838.4496152790291
 21
2124.1284538647828
  0
LINE
  8
_0-0_0
  6
CONTINUOUS
 62
    7
 10
1838.4496152790291
 20
2124.1284538647828
 11
1931.598698328608
 21
2124.1284538647828
  0
LINE
  8
_0-0_0
  6
CONTINUOUS
 62
    7
 10
1931.598698328608
 20
2124.1284538647828
 11
1949.388346738474
 21
2106.9084159038339
  0
LINE
  8
_0-0_0
  6
CONTINUOUS
 62
    7
 10
1307.70075168327
 20
1978.7047824981951
 11
1307.70075168327
 21
1884.941225014461
  0
LINE
  8
_0-0_0
  6
CONTINUOUS
 62
    7
 10
1307.70075168327
 20
1884.941225014461
 11
1289.9476323255849
 21
1867.7031556001402
  0
LINE
  8
_0-0_0
  6
CONTINUOUS
 62
    7
 10
1289.9476323255849
 20
1867.7031556001402
 11
1196.7620202238099
 21
1867.7031556001402
  0
LINE
  8
_0-0_0
  6
CONTINUOUS
 62
    7
 10
1196.7620202238099
 20
1867.7031556001402
 11
1179.3011332835281
 21
1884.941225014461
  0
LINE
  8
_0-0_0
  6
CONTINUOUS
 62
    7
 10
1179.3011332835281
 20
1884.941225014461
 11
1179.3011332835281
 21
1978.7047824981951
  0
LINE
  8
_0-0_0
  6
CONTINUOUS
 62
    7
 10
1179.3011332835281
 20
1978.7047824981951
 11
1196.7620202238099
 21
1995.924820459144
  0
LINE
  8
_0-0_0
  6
CONTINUOUS
 62
    7
 10
1196.7620202238099
 20
1995.924820459144
 11
1289.9476323255849
 21
1995.924820459144
  0
LINE
  8
_0-0_0
  6
CONTINUOUS
 62
    7
 10
1289.9476323255849
 20
1995.924820459144
 11
1307.70075168327
 21
1978.7047824981951
  0
LINE
  8
_0-0_0
  6
CONTINUOUS
 62
    7
 10
1436.1003700829979
 20
1978.7047824981951
 11
1436.1003700829979
 21
1884.941225014461
  0
LINE
  8
_0-0_0
  6
CONTINUOUS
 62
    7
 10
1436.1003700829979
 20
1884.941225014461
 11
1418.3472507253127
 21
1867.7031556001402
  0
LINE
  8
_0-0_0
  6
CONTINUOUS
 62
    7
 10
1418.3472507253127
 20
1867.7031556001402
 11
1325.1616386235532
 21
1867.7031556001402
  0
LINE
  8
_0-0_0
  6
CONTINUOUS
 62
    7
 10
1325.1616386235532
 20
1867.7031556001402
 11
1307.70075168327
 21
1884.941225014461
  0
LINE
  8
_0-0_0
  6
CONTINUOUS
 62
    7
 10
1307.70075168327
 20
1884.941225014461
 11
1307.70075168327
 21
1978.7047824981951
  0
LINE
  8
_0-0_0
  6
CONTINUOUS
 62
    7
 10
1307.70075168327
 20
1978.7047824981951
 11
1325.1616386235532
 21
1995.924820459144
  0
LINE
  8
_0-0_0
  6
CONTINUOUS
 62
    7
 10
1325.1616386235532
 20
1995.924820459144
 11
1418.3472507253127
 21
1995.924820459144
  0
LINE
  8
_0-0_0
  6
CONTINUOUS
 62
    7
 10
1418.3472507253127
 20
1995.924820459144
 11
1436.1003700829979
 21
1978.7047824981951
  0
LINE
  8
_0-0_0
  6
CONTINUOUS
 62
    7
 10
1564.4086658523031
 20
1978.7047824981951
 11
1564.4086658523031
 21
1884.941225014461
  0
LINE
  8
_0-0_0
  6
CONTINUOUS
 62
    7
 10
1564.4086658523031
 20
1884.941225014461
 11
1546.6555464946171
 21
1867.7031556001402
  0
LINE
  8
_0-0_0
  6
CONTINUOUS
 62
    7
 10
1546.6555464946171
 20
1867.7031556001402
 11
1453.4699343928428
 21
1867.7031556001402
  0
LINE
  8
_0-0_0
  6
CONTINUOUS
 62
    7
 10
1453.4699343928428
 20
1867.7031556001402
 11
1436.0455765047418
 21
1884.941225014461
  0
LINE
  8
_0-0_0
  6
CONTINUOUS
 62
    7
 10
1436.0455765047418
 20
1884.941225014461
 11
1436.0455765047418
 21
1978.7047824981951
  0
LINE
  8
_0-0_0
  6
CONTINUOUS
 62
    7
 10
1436.0455765047418
 20
1978.7047824981951
 11
1453.4699343928428
 21
1995.924820459144
  0
LINE
  8
_0-0_0
  6
CONTINUOUS
 62
    7
 10
1453.4699343928428
 20
1995.924820459144
 11
1546.6555464946171
 21
1995.924820459144
  0
LINE
  8
_0-0_0
  6
CONTINUOUS
 62
    7
 10
1546.6555464946171
 20
1995.924820459144
 11
1564.4086658523031
 21
1978.7047824981951
  0
LINE
  8
_0-0_0
  6
CONTINUOUS
 62
    7
 10
1692.7169616216229
 20
1978.7047824981951
 11
1692.7169616216229
 21
1884.941225014461
  0
LINE
  8
_0-0_0
  6
CONTINUOUS
 62
    7
 10
1692.7169616216229
 20
1884.941225014461
 11
1674.9638422639371
 21
1867.7031556001402
  0
LINE
  8
_0-0_0
  6
CONTINUOUS
 62
    7
 10
1674.9638422639371
 20
1867.7031556001402
 11
1581.7964946882239
 21
1867.7031556001402
  0
LINE
  8
_0-0_0
  6
CONTINUOUS
 62
    7
 10
1581.7964946882239
 20
1867.7031556001402
 11
1564.353872274032
 21
1884.941225014461
  0
LINE
  8
_0-0_0
  6
CONTINUOUS
 62
    7
 10
1564.353872274032
 20
1884.941225014461
 11
1564.353872274032
 21
1978.7047824981951
  0
LINE
  8
_0-0_0
  6
CONTINUOUS
 62
    7
 10
1564.353872274032
 20
1978.7047824981951
 11
1581.7964946882239
 21
1995.924820459144
  0
LINE
  8
_0-0_0
  6
CONTINUOUS
 62
    7
 10
1581.7964946882239
 20
1995.924820459144
 11
1674.9638422639371
 21
1995.924820459144
  0
LINE
  8
_0-0_0
  6
CONTINUOUS
 62
    7
 10
1674.9638422639371
 20
1995.924820459144
 11
1692.7169616216229
 21
1978.7047824981951
  0
LINE
  8
_0-0_0
  6
CONTINUOUS
 62
    7
 10
1821.0617864430942
 20
1978.7047824981951
 11
1821.0617864430942
 21
1884.941225014461
  0
LINE
  8
_0-0_0
  6
CONTINUOUS
 62
    7
 10
1821.0617864430942
 20
1884.941225014461
 11
1803.3086670854077
 21
1867.7031556001402
  0
LINE
  8
_0-0_0
  6
CONTINUOUS
 62
    7
 10
1803.3086670854077
 20
1867.7031556001402
 11
1710.1047904575289
 21
1867.7031556001402
  0
LINE
  8
_0-0_0
  6
CONTINUOUS
 62
    7
 10
1710.1047904575289
 20
1867.7031556001402
 11
1692.680432569442
 21
1884.941225014461
  0
LINE
  8
_0-0_0
  6
CONTINUOUS
 62
    7
 10
1692.680432569442
 20
1884.941225014461
 11
1692.680432569442
 21
1978.7047824981951
  0
LINE
  8
_0-0_0
  6
CONTINUOUS
 62
    7
 10
1692.680432569442
 20
1978.7047824981951
 11
1710.1047904575289
 21
1995.924820459144
  0
LINE
  8
_0-0_0
  6
CONTINUOUS
 62
    7
 10
1710.1047904575289
 20
1995.924820459144
 11
1803.3086670854077
 21
1995.924820459144
  0
LINE
  8
_0-0_0
  6
CONTINUOUS
 62
    7
 10
1803.3086670854077
 20
1995.924820459144
 11
1821.0617864430942
 21
1978.7047824981951
  0
LINE
  8
_0-0_0
  6
CONTINUOUS
 62
    7
 10
1949.388346738474
 20
1978.7047824981951
 11
1949.388346738474
 21
1884.941225014461
  0
LINE
  8
_0-0_0
  6
CONTINUOUS
 62
    7
 10
1949.388346738474
 20
1884.941225014461
 11
1931.598698328608
 21
1867.7031556001402
  0
LINE
  8
_0-0_0
  6
CONTINUOUS
 62
    7
 10
1931.598698328608
 20
1867.7031556001402
 11
1838.4496152790291
 21
1867.7031556001402
  0
LINE
  8
_0-0_0
  6
CONTINUOUS
 62
    7
 10
1838.4496152790291
 20
1867.7031556001402
 11
1820.988728338732
 21
1884.941225014461
  0
LINE
  8
_0-0_0
  6
CONTINUOUS
 62
    7
 10
1820.988728338732
 20
1884.941225014461
 11
1820.988728338732
 21
1978.7047824981951
  0
LINE
  8
_0-0_0
  6
CONTINUOUS
 62
    7
 10
1820.988728338732
 20
1978.7047824981951
 11
1838.4496152790291
 21
1995.924820459144
  0
LINE
  8
_0-0_0
  6
CONTINUOUS
 62
    7
 10
1838.4496152790291
 20
1995.924820459144
 11
1931.598698328608
 21
1995.924820459144
  0
LINE
  8
_0-0_0
  6
CONTINUOUS
 62
    7
 10
1931.598698328608
 20
1995.924820459144
 11
1949.388346738474
 21
1978.7047824981951
  0
LINE
  8
_0-0_0
  6
CONTINUOUS
 62
    7
 10
1307.70075168327
 20
1850.5011490925481
 11
1307.70075168327
 21
1756.7195601554581
  0
LINE
  8
_0-0_0
  6
CONTINUOUS
 62
    7
 10
1307.70075168327
 20
1756.7195601554581
 11
1289.9476323255849
 21
1739.499522194508
  0
LINE
  8
_0-0_0
  6
CONTINUOUS
 62
    7
 10
1289.9476323255849
 20
1739.499522194508
 11
1196.7620202238099
 21
1739.499522194508
  0
LINE
  8
_0-0_0
  6
CONTINUOUS
 62
    7
 10
1196.7620202238099
 20
1739.499522194508
 11
1179.3011332835281
 21
1756.7195601554581
  0
LINE
  8
_0-0_0
  6
CONTINUOUS
 62
    7
 10
1179.3011332835281
 20
1756.7195601554581
 11
1179.3011332835281
 21
1850.5011490925481
  0
LINE
  8
_0-0_0
  6
CONTINUOUS
 62
    7
 10
1179.3011332835281
 20
1850.5011490925481
 11
1196.7620202238099
 21
1867.721187053505
  0
LINE
  8
_0-0_0
  6
CONTINUOUS
 62
    7
 10
1196.7620202238099
 20
1867.721187053505
 11
1289.9476323255849
 21
1867.721187053505
  0
LINE
  8
_0-0_0
  6
CONTINUOUS
 62
    7
 10
1289.9476323255849
 20
1867.721187053505
 11
1307.70075168327
 21
1850.5011490925481
  0
LINE
  8
_0-0_0
  6
CONTINUOUS
 62
    7
 10
1436.1003700829979
 20
1850.5011490925481
 11
1436.1003700829979
 21
1756.7195601554581
  0
LINE
  8
_0-0_0
  6
CONTINUOUS
 62
    7
 10
1436.1003700829979
 20
1756.7195601554581
 11
1418.3472507253127
 21
1739.499522194508
  0
LINE
  8
_0-0_0
  6
CONTINUOUS
 62
    7
 10
1418.3472507253127
 20
1739.499522194508
 11
1325.1616386235532
 21
1739.499522194508
  0
LINE
  8
_0-0_0
  6
CONTINUOUS
 62
    7
 10
1325.1616386235532
 20
1739.499522194508
 11
1307.70075168327
 21
1756.7195601554581
  0
LINE
  8
_0-0_0
  6
CONTINUOUS
 62
    7
 10
1307.70075168327
 20
1756.7195601554581
 11
1307.70075168327
 21
1850.5011490925481
  0
LINE
  8
_0-0_0
  6
CONTINUOUS
 62
    7
 10
1307.70075168327
 20
1850.5011490925481
 11
1325.1616386235532
 21
1867.721187053505
  0
LINE
  8
_0-0_0
  6
CONTINUOUS
 62
    7
 10
1325.1616386235532
 20
1867.721187053505
 11
1418.3472507253127
 21
1867.721187053505
  0
LINE
  8
_0-0_0
  6
CONTINUOUS
 62
    7
 10
1418.3472507253127
 20
1867.721187053505
 11
1436.1003700829979
 21
1850.5011490925481
  0
LINE
  8
_0-0_0
  6
CONTINUOUS
 62
    7
 10
1564.4086658523031
 20
1850.5011490925481
 11
1564.4086658523031
 21
1756.7195601554581
  0
LINE
  8
_0-0_0
  6
CONTINUOUS
 62
    7
 10
1564.4086658523031
 20
1756.7195601554581
 11
1546.6555464946171
 21
1739.499522194508
  0
LINE
  8
_0-0_0
  6
CONTINUOUS
 62
    7
 10
1546.6555464946171
 20
1739.499522194508
 11
1453.4699343928428
 21
1739.499522194508
  0
LINE
  8
_0-0_0
  6
CONTINUOUS
 62
    7
 10
1453.4699343928428
 20
1739.499522194508
 11
1436.0455765047418
 21
1756.7195601554581
  0
LINE
  8
_0-0_0
  6
CONTINUOUS
 62
    7
 10
1436.0455765047418
 20
1756.7195601554581
 11
1436.0455765047418
 21
1850.5011490925481
  0
LINE
  8
_0-0_0
  6
CONTINUOUS
 62
    7
 10
1436.0455765047418
 20
1850.5011490925481
 11
1453.4699343928428
 21
1867.721187053505
  0
LINE
  8
_0-0_0
  6
CONTINUOUS
 62
    7
 10
1453.4699343928428
 20
1867.721187053505
 11
1546.6555464946171
 21
1867.721187053505
  0
LINE
  8
_0-0_0
  6
CONTINUOUS
 62
    7
 10
1546.6555464946171
 20
1867.721187053505
 11
1564.4086658523031
 21
1850.5011490925481
  0
LINE
  8
_0-0_0
  6
CONTINUOUS
 62
    7
 10
1692.7169616216229
 20
1850.5011490925481
 11
1692.7169616216229
 21
1756.7195601554581
  0
LINE
  8
_0-0_0
  6
CONTINUOUS
 62
    7
 10
1692.7169616216229
 20
1756.7195601554581
 11
1674.9638422639371
 21
1739.499522194508
  0
LINE
  8
_0-0_0
  6
CONTINUOUS
 62
    7
 10
1674.9638422639371
 20
1739.499522194508
 11
1581.7964946882239
 21
1739.499522194508
  0
LINE
  8
_0-0_0
  6
CONTINUOUS
 62
    7
 10
1581.7964946882239
 20
1739.499522194508
 11
1564.353872274032
 21
1756.7195601554581
  0
LINE
  8
_0-0_0
  6
CONTINUOUS
 62
    7
 10
1564.353872274032
 20
1756.7195601554581
 11
1564.353872274032
 21
1850.5011490925481
  0
LINE
  8
_0-0_0
  6
CONTINUOUS
 62
    7
 10
1564.353872274032
 20
1850.5011490925481
 11
1581.7964946882239
 21
1867.721187053505
  0
LINE
  8
_0-0_0
  6
CONTINUOUS
 62
    7
 10
1581.7964946882239
 20
1867.721187053505
 11
1674.9638422639371
 21
1867.721187053505
  0
LINE
  8
_0-0_0
  6
CONTINUOUS
 62
    7
 10
1674.9638422639371
 20
1867.721187053505
 11
1692.7169616216229
 21
1850.5011490925481
  0
LINE
  8
_0-0_0
  6
CONTINUOUS
 62
    7
 10
1821.0617864430942
 20
1850.5011490925481
 11
1821.0617864430942
 21
1756.7195601554581
  0
LINE
  8
_0-0_0
  6
CONTINUOUS
 62
    7
 10
1821.0617864430942
 20
1756.7195601554581
 11
1803.3086670854077
 21
1739.499522194508
  0
LINE
  8
_0-0_0
  6
CONTINUOUS
 62
    7
 10
1803.3086670854077
 20
1739.499522194508
 11
1710.1047904575289
 21
1739.499522194508
  0
LINE
  8
_0-0_0
  6
CONTINUOUS
 62
    7
 10
1710.1047904575289
 20
1739.499522194508
 11
1692.680432569442
 21
1756.7195601554581
  0
LINE
  8
_0-0_0
  6
CONTINUOUS
 62
    7
 10
1692.680432569442
 20
1756.7195601554581
 11
1692.680432569442
 21
1850.5011490925481
  0
LINE
  8
_0-0_0
  6
CONTINUOUS
 62
    7
 10
1692.680432569442
 20
1850.5011490925481
 11
1710.1047904575289
 21
1867.721187053505
  0
LINE
  8
_0-0_0
  6
CONTINUOUS
 62
    7
 10
1710.1047904575289
 20
1867.721187053505
 11
1803.3086670854077
 21
1867.721187053505
  0
LINE
  8
_0-0_0
  6
CONTINUOUS
 62
    7
 10
1803.3086670854077
 20
1867.721187053505
 11
1821.0617864430942
 21
1850.5011490925481
  0
LINE
  8
_0-0_0
  6
CONTINUOUS
 62
    7
 10
1949.388346738474
 20
1850.5011490925481
 11
1949.388346738474
 21
1756.7195601554581
  0
LINE
  8
_0-0_0
  6
CONTINUOUS
 62
    7
 10
1949.388346738474
 20
1756.7195601554581
 11
1931.598698328608
 21
1739.499522194508
  0
LINE
  8
_0-0_0
  6
CONTINUOUS
 62
    7
 10
1931.598698328608
 20
1739.499522194508
 11
1838.4496152790291
 21
1739.499522194508
  0
LINE
  8
_0-0_0
  6
CONTINUOUS
 62
    7
 10
1838.4496152790291
 20
1739.499522194508
 11
1820.988728338732
 21
1756.7195601554581
  0
LINE
  8
_0-0_0
  6
CONTINUOUS
 62
    7
 10
1820.988728338732
 20
1756.7195601554581
 11
1820.988728338732
 21
1850.5011490925481
  0
LINE
  8
_0-0_0
  6
CONTINUOUS
 62
    7
 10
1820.988728338732
 20
1850.5011490925481
 11
1838.4496152790291
 21
1867.721187053505
  0
LINE
  8
_0-0_0
  6
CONTINUOUS
 62
    7
 10
1838.4496152790291
 20
1867.721187053505
 11
1931.598698328608
 21
1867.721187053505
  0
LINE
  8
_0-0_0
  6
CONTINUOUS
 62
    7
 10
1931.598698328608
 20
1867.721187053505
 11
1949.388346738474
 21
1850.5011490925481
  0
LINE
  8
_0-0_0
  6
CONTINUOUS
 62
    7
 10
1307.70075168327
 20
1722.2975156869161
 11
1307.70075168327
 21
1628.5159267498179
  0
LINE
  8
_0-0_0
  6
CONTINUOUS
 62
    7
 10
1307.70075168327
 20
1628.5159267498179
 11
1289.9476323255849
 21
1611.313920242226
  0
LINE
  8
_0-0_0
  6
CONTINUOUS
 62
    7
 10
1289.9476323255849
 20
1611.313920242226
 11
1196.7620202238099
 21
1611.313920242226
  0
LINE
  8
_0-0_0
  6
CONTINUOUS
 62
    7
 10
1196.7620202238099
 20
1611.313920242226
 11
1179.3011332835281
 21
1628.5159267498179
  0
LINE
  8
_0-0_0
  6
CONTINUOUS
 62
    7
 10
1179.3011332835281
 20
1628.5159267498179
 11
1179.3011332835281
 21
1722.2975156869161
  0
LINE
  8
_0-0_0
  6
CONTINUOUS
 62
    7
 10
1179.3011332835281
 20
1722.2975156869161
 11
1196.7620202238099
 21
1739.5175536478728
  0
LINE
  8
_0-0_0
  6
CONTINUOUS
 62
    7
 10
1196.7620202238099
 20
1739.5175536478728
 11
1289.9476323255849
 21
1739.5175536478728
  0
LINE
  8
_0-0_0
  6
CONTINUOUS
 62
    7
 10
1289.9476323255849
 20
1739.5175536478728
 11
1307.70075168327
 21
1722.2975156869161
  0
LINE
  8
_0-0_0
  6
CONTINUOUS
 62
    7
 10
1436.1003700829979
 20
1722.2975156869161
 11
1436.1003700829979
 21
1628.5159267498179
  0
LINE
  8
_0-0_0
  6
CONTINUOUS
 62
    7
 10
1436.1003700829979
 20
1628.5159267498179
 11
1418.3472507253127
 21
1611.313920242226
  0
LINE
  8
_0-0_0
  6
CONTINUOUS
 62
    7
 10
1418.3472507253127
 20
1611.313920242226
 11
1325.1616386235532
 21
1611.313920242226
  0
LINE
  8
_0-0_0
  6
CONTINUOUS
 62
    7
 10
1325.1616386235532
 20
1611.313920242226
 11
1307.70075168327
 21
1628.5159267498179
  0
LINE
  8
_0-0_0
  6
CONTINUOUS
 62
    7
 10
1307.70075168327
 20
1628.5159267498179
 11
1307.70075168327
 21
1722.2975156869161
  0
LINE
  8
_0-0_0
  6
CONTINUOUS
 62
    7
 10
1307.70075168327
 20
1722.2975156869161
 11
1325.1616386235532
 21
1739.5175536478728
  0
LINE
  8
_0-0_0
  6
CONTINUOUS
 62
    7
 10
1325.1616386235532
 20
1739.5175536478728
 11
1418.3472507253127
 21
1739.5175536478728
  0
LINE
  8
_0-0_0
  6
CONTINUOUS
 62
    7
 10
1418.3472507253127
 20
1739.5175536478728
 11
1436.1003700829979
 21
1722.2975156869161
  0
LINE
  8
_0-0_0
  6
CONTINUOUS
 62
    7
 10
1564.4086658523031
 20
1722.2975156869161
 11
1564.4086658523031
 21
1628.5159267498179
  0
LINE
  8
_0-0_0
  6
CONTINUOUS
 62
    7
 10
1564.4086658523031
 20
1628.5159267498179
 11
1546.6555464946171
 21
1611.313920242226
  0
LINE
  8
_0-0_0
  6
CONTINUOUS
 62
    7
 10
1546.6555464946171
 20
1611.313920242226
 11
1453.4699343928428
 21
1611.313920242226
  0
LINE
  8
_0-0_0
  6
CONTINUOUS
 62
    7
 10
1453.4699343928428
 20
1611.313920242226
 11
1436.0455765047418
 21
1628.5159267498179
  0
LINE
  8
_0-0_0
  6
CONTINUOUS
 62
    7
 10
1436.0455765047418
 20
1628.5159267498179
 11
1436.0455765047418
 21
1722.2975156869161
  0
LINE
  8
_0-0_0
  6
CONTINUOUS
 62
    7
 10
1436.0455765047418
 20
1722.2975156869161
 11
1453.4699343928428
 21
1739.5175536478728
  0
LINE
  8
_0-0_0
  6
CONTINUOUS
 62
    7
 10
1453.4699343928428
 20
1739.5175536478728
 11
1546.6555464946171
 21
1739.5175536478728
  0
LINE
  8
_0-0_0
  6
CONTINUOUS
 62
    7
 10
1546.6555464946171
 20
1739.5175536478728
 11
1564.4086658523031
 21
1722.2975156869161
  0
LINE
  8
_0-0_0
  6
CONTINUOUS
 62
    7
 10
1692.7169616216229
 20
1722.2975156869161
 11
1692.7169616216229
 21
1628.5159267498179
  0
LINE
  8
_0-0_0
  6
CONTINUOUS
 62
    7
 10
1692.7169616216229
 20
1628.5159267498179
 11
1674.9638422639371
 21
1611.313920242226
  0
LINE
  8
_0-0_0
  6
CONTINUOUS
 62
    7
 10
1674.9638422639371
 20
1611.313920242226
 11
1581.7964946882239
 21
1611.313920242226
  0
LINE
  8
_0-0_0
  6
CONTINUOUS
 62
    7
 10
1581.7964946882239
 20
1611.313920242226
 11
1564.353872274032
 21
1628.5159267498179
  0
LINE
  8
_0-0_0
  6
CONTINUOUS
 62
    7
 10
1564.353872274032
 20
1628.5159267498179
 11
1564.353872274032
 21
1722.2975156869161
  0
LINE
  8
_0-0_0
  6
CONTINUOUS
 62
    7
 10
1564.353872274032
 20
1722.2975156869161
 11
1581.7964946882239
 21
1739.5175536478728
  0
LINE
  8
_0-0_0
  6
CONTINUOUS
 62
    7
 10
1581.7964946882239
 20
1739.5175536478728
 11
1674.9638422639371
 21
1739.5175536478728
  0
LINE
  8
_0-0_0
  6
CONTINUOUS
 62
    7
 10
1674.9638422639371
 20
1739.5175536478728
 11
1692.7169616216229
 21
1722.2975156869161
  0
LINE
  8
_0-0_0
  6
CONTINUOUS
 62
    7
 10
1821.0617864430942
 20
1722.2975156869161
 11
1821.0617864430942
 21
1628.5159267498179
  0
LINE
  8
_0-0_0
  6
CONTINUOUS
 62
    7
 10
1821.0617864430942
 20
1628.5159267498179
 11
1803.3086670854077
 21
1611.313920242226
  0
LINE
  8
_0-0_0
  6
CONTINUOUS
 62
    7
 10
1803.3086670854077
 20
1611.313920242226
 11
1710.1047904575289
 21
1611.313920242226
  0
LINE
  8
_0-0_0
  6
CONTINUOUS
 62
    7
 10
1710.1047904575289
 20
1611.313920242226
 11
1692.680432569442
 21
1628.5159267498179
  0
LINE
  8
_0-0_0
  6
CONTINUOUS
 62
    7
 10
1692.680432569442
 20
1628.5159267498179
 11
1692.680432569442
 21
1722.2975156869161
  0
LINE
  8
_0-0_0
  6
CONTINUOUS
 62
    7
 10
1692.680432569442
 20
1722.2975156869161
 11
1710.1047904575289
 21
1739.5175536478728
  0
LINE
  8
_0-0_0
  6
CONTINUOUS
 62
    7
 10
1710.1047904575289
 20
1739.5175536478728
 11
1803.3086670854077
 21
1739.5175536478728
  0
LINE
  8
_0-0_0
  6
CONTINUOUS
 62
    7
 10
1803.3086670854077
 20
1739.5175536478728
 11
1821.0617864430942
 21
1722.2975156869161
  0
LINE
  8
_0-0_0
  6
CONTINUOUS
 62
    7
 10
1949.388346738474
 20
1722.2975156869161
 11
1949.388346738474
 21
1628.5159267498179
  0
LINE
  8
_0-0_0
  6
CONTINUOUS
 62
    7
 10
1949.388346738474
 20
1628.5159267498179
 11
1931.598698328608
 21
1611.313920242226
  0
LINE
  8
_0-0_0
  6
CONTINUOUS
 62
    7
 10
1931.598698328608
 20
1611.313920242226
 11
1838.4496152790291
 21
1611.313920242226
  0
LINE
  8
_0-0_0
  6
CONTINUOUS
 62
    7
 10
1838.4496152790291
 20
1611.313920242226
 11
1820.988728338732
 21
1628.5159267498179
  0
LINE
  8
_0-0_0
  6
CONTINUOUS
 62
    7
 10
1820.988728338732
 20
1628.5159267498179
 11
1820.988728338732
 21
1722.2975156869161
  0
LINE
  8
_0-0_0
  6
CONTINUOUS
 62
    7
 10
1820.988728338732
 20
1722.2975156869161
 11
1838.4496152790291
 21
1739.5175536478728
  0
LINE
  8
_0-0_0
  6
CONTINUOUS
 62
    7
 10
1838.4496152790291
 20
1739.5175536478728
 11
1931.598698328608
 21
1739.5175536478728
  0
LINE
  8
_0-0_0
  6
CONTINUOUS
 62
    7
 10
1931.598698328608
 20
1739.5175536478728
 11
1949.388346738474
 21
1722.2975156869161
  0
LINE
  8
_0-0_0
  6
CONTINUOUS
 62
    7
 10
2309.9999676089992
 20
2394.8887575524218
 11
2309.9999676089992
 21
1596.888757552422
  0
LINE
  8
_0-0_0
  6
CONTINUOUS
 62
    7
 10
2298.9999676089992
 20
2394.8887575524218
 11
2298.9999676089992
 21
1596.888757552422
  0
LINE
  8
_0-0_0
  6
CONTINUOUS
 62
    7
 10
2309.9999676089992
 20
1596.888757552422
 11
2263.9999676089992
 21
1596.888757552422
  0
LINE
  8
_0-0_0
  6
CONTINUOUS
 62
    7
 10
2263.9999676089992
 20
1596.888757552422
 11
2263.9999676089992
 21
2394.8887575524218
  0
LINE
  8
_0-0_0
  6
CONTINUOUS
 62
    7
 10
2280.9999676089992
 20
1596.888757552422
 11
2280.9999676089992
 21
2394.8887575524218
  0
LINE
  8
_0-0_0
  6
CONTINUOUS
 62
    7
 10
2263.9999676090001
 20
2394.8887575524218
 11
2309.9999676089992
 21
2394.8887575524218
  0
CIRCLE
  8
_0-0_0
  6
CONTINUOUS
 62
    7
 10
2293.9999676089992
 20
2195.8887575524218
 40
2
  0
LINE
  8
_0-0_0
  6
CONTINUOUS
 62
    7
 10
2275.0537568550521
 20
1606.8656309797593
 11
2275.5036343986112
 21
1607.365580382914
  0
LINE
  8
_0-0_0
  6
CONTINUOUS
 62
    7
 10
2275.5036343986112
 20
1607.365580382914
 11
2274.8434880031709
 21
1608.0811942344869
  0
LINE
  8
_0-0_0
  6
CONTINUOUS
 62
    7
 10
2274.8385980298722
 20
1608.6987787913249
 11
2274.7310186172808
 21
1608.365479189222
  0
LINE
  8
_0-0_0
  6
CONTINUOUS
 62
    7
 10
2274.7310186172808
 20
1608.365479189222
 11
2274.8385980298722
 21
1608.0713913050131
  0
LINE
  8
_0-0_0
  6
CONTINUOUS
 62
    7
 10
2274.8385980298722
 20
1608.6987787913249
 11
2275.5574241049048
 21
1609.4143926428981
  0
LINE
  8
_0-0_0
  6
CONTINUOUS
 62
    7
 10
2275.5574241049048
 20
1609.4143926428981
 11
2275.048866881752
 21
1609.865327398684
  0
LINE
  8
_0-0_0
  6
CONTINUOUS
 62
    7
 10
2275.048866881752
 20
1609.865327398684
 11
2274.330040806718
 21
1609.1987281944789
  0
LINE
  8
_0-0_0
  6
CONTINUOUS
 62
    7
 10
2273.7236841175741
 20
1609.247742841847
 11
2274.0562023019429
 21
1609.0810930407949
  0
LINE
  8
_0-0_0
  6
CONTINUOUS
 62
    7
 10
2274.0562023019429
 20
1609.0810930407949
 11
2274.3349307800172
 21
1609.1987281944789
  0
LINE
  8
_0-0_0
  6
CONTINUOUS
 62
    7
 10
2273.7236841175741
 20
1609.247742841847
 11
2273.00485804254
 21
1609.9241449755259
  0
LINE
  8
_0-0_0
  6
CONTINUOUS
 62
    7
 10
2273.00485804254
 20
1609.9241449755259
 11
2272.5109707392849
 21
1609.4732102197399
  0
LINE
  8
_0-0_0
  6
CONTINUOUS
 62
    7
 10
2272.5109707392849
 20
1609.4732102197399
 11
2273.2249068410201
 21
1608.747793438693
  0
LINE
  8
_0-0_0
  6
CONTINUOUS
 62
    7
 10
2273.1760071080239
 20
1608.0811942344869
 11
2273.3471561735091
 21
1608.4144938365901
  0
LINE
  8
_0-0_0
  6
CONTINUOUS
 62
    7
 10
2273.3471561735091
 20
1608.4144938365901
 11
2273.2249068410201
 21
1608.747793438693
  0
LINE
  8
_0-0_0
  6
CONTINUOUS
 62
    7
 10
2273.1760071080239
 20
1608.0811942344869
 11
2272.515860712585
 21
1607.365580382914
  0
LINE
  8
_0-0_0
  6
CONTINUOUS
 62
    7
 10
2272.515860712585
 20
1607.365580382914
 11
2272.9559583095438
 21
1606.914645627128
  0
LINE
  8
_0-0_0
  6
CONTINUOUS
 62
    7
 10
2272.9559583095438
 20
1606.914645627128
 11
2273.665004437979
 21
1607.5812448313329
  0
LINE
  8
_0-0_0
  6
CONTINUOUS
 62
    7
 10
2274.330040806718
 20
1607.5812448313329
 11
2273.9975226223478
 21
1607.698879985016
  0
LINE
  8
_0-0_0
  6
CONTINUOUS
 62
    7
 10
2273.9975226223478
 20
1607.698879985016
 11
2273.6698944112791
 21
1607.5812448313329
  0
LINE
  8
_0-0_0
  6
CONTINUOUS
 62
    7
 10
2275.0537568550521
 20
1606.8656309797593
 11
2274.3349307800172
 21
1607.5812448313329
  0
LINE
  8
_0-0_0
  6
CONTINUOUS
 62
    7
 10
2273.3911659332039
 20
1608.0811942344869
 11
2273.180897081324
 21
1608.0811942344869
  0
LINE
  8
_0-0_0
  6
CONTINUOUS
 62
    7
 10
2273.2249068410201
 20
1608.747793438693
 11
2273.396055906504
 21
1608.6987787913249
  0
LINE
  8
_0-0_0
  6
CONTINUOUS
 62
    7
 10
2273.3911659332039
 20
1608.0811942344869
 11
2273.4165496487699
 21
1608.1102059134971
  0
LINE
  8
_0-0_0
  6
CONTINUOUS
 62
    7
 10
2273.4165496487699
 20
1608.1102059134971
 11
2273.440099624348
 21
1608.1384687576151
  0
LINE
  8
_0-0_0
  6
CONTINUOUS
 62
    7
 10
2273.440099624348
 20
1608.1384687576151
 11
2273.4617649227171
 21
1608.1660508427431
  0
LINE
  8
_0-0_0
  6
CONTINUOUS
 62
    7
 10
2273.4617649227171
 20
1608.1660508427431
 11
2273.4814946066549
 21
1608.1930202447791
  0
LINE
  8
_0-0_0
  6
CONTINUOUS
 62
    7
 10
2273.4814946066549
 20
1608.1930202447791
 11
2273.499237738939
 21
1608.219445039621
  0
LINE
  8
_0-0_0
  6
CONTINUOUS
 62
    7
 10
2273.499237738939
 20
1608.219445039621
 11
2273.514943382349
 21
1608.2453933031702
  0
LINE
  8
_0-0_0
  6
CONTINUOUS
 62
    7
 10
2273.514943382349
 20
1608.2453933031702
 11
2273.5285605996628
 21
1608.2709331113238
  0
LINE
  8
_0-0_0
  6
CONTINUOUS
 62
    7
 10
2273.5285605996628
 20
1608.2709331113238
 11
2273.5400384536579
 21
1608.2961325399831
  0
LINE
  8
_0-0_0
  6
CONTINUOUS
 62
    7
 10
2273.5400384536579
 20
1608.2961325399831
 11
2273.5493260071121
 21
1608.3210596650449
  0
LINE
  8
_0-0_0
  6
CONTINUOUS
 62
    7
 10
2273.5493260071121
 20
1608.3210596650449
 11
2273.5563723228038
 21
1608.3457825624091
  0
LINE
  8
_0-0_0
  6
CONTINUOUS
 62
    7
 10
2273.5563723228038
 20
1608.3457825624091
 11
2273.5611264635122
 21
1608.3703693079749
  0
LINE
  8
_0-0_0
  6
CONTINUOUS
 62
    7
 10
2273.5611264635122
 20
1608.3703693079749
 11
2273.5635374920139
 21
1608.3948879776431
  0
LINE
  8
_0-0_0
  6
CONTINUOUS
 62
    7
 10
2273.5635374920139
 20
1608.3948879776431
 11
2273.5635544710881
 21
1608.4194066473101
  0
LINE
  8
_0-0_0
  6
CONTINUOUS
 62
    7
 10
2273.5635544710881
 20
1608.4194066473101
 11
2273.5611264635122
 21
1608.4439933928761
  0
LINE
  8
_0-0_0
  6
CONTINUOUS
 62
    7
 10
2273.5611264635122
 20
1608.4439933928761
 11
2273.5562025320651
 21
1608.468716290241
  0
LINE
  8
_0-0_0
  6
CONTINUOUS
 62
    7
 10
2273.5562025320651
 20
1608.468716290241
 11
2273.5487317395232
 21
1608.493643415303
  0
LINE
  8
_0-0_0
  6
CONTINUOUS
 62
    7
 10
2273.5487317395232
 20
1608.493643415303
 11
2273.5386631486672
 21
1608.518842843961
  0
LINE
  8
_0-0_0
  6
CONTINUOUS
 62
    7
 10
2273.5386631486672
 20
1608.518842843961
 11
2273.5259458222731
 21
1608.544382652115
  0
LINE
  8
_0-0_0
  6
CONTINUOUS
 62
    7
 10
2273.5259458222731
 20
1608.544382652115
 11
2273.5105288231211
 21
1608.5703309156638
  0
LINE
  8
_0-0_0
  6
CONTINUOUS
 62
    7
 10
2273.5105288231211
 20
1608.5703309156638
 11
2273.492361213986
 21
1608.5967557105071
  0
LINE
  8
_0-0_0
  6
CONTINUOUS
 62
    7
 10
2273.492361213986
 20
1608.5967557105071
 11
2273.4713920576501
 21
1608.6237251125431
  0
LINE
  8
_0-0_0
  6
CONTINUOUS
 62
    7
 10
2273.4713920576501
 20
1608.6237251125431
 11
2273.447570416889
 21
1608.6513071976699
  0
LINE
  8
_0-0_0
  6
CONTINUOUS
 62
    7
 10
2273.447570416889
 20
1608.6513071976699
 11
2273.4208453544811
 21
1608.6795700417888
  0
LINE
  8
_0-0_0
  6
CONTINUOUS
 62
    7
 10
2273.4208453544811
 20
1608.6795700417888
 11
2273.3911659332039
 21
1608.7085817207981
  0
LINE
  8
_0-0_0
  6
CONTINUOUS
 62
    7
 10
2273.7236841175741
 20
1609.032078393428
 11
2273.7236841175741
 21
1609.237939912374
  0
LINE
  8
_0-0_0
  6
CONTINUOUS
 62
    7
 10
2274.330040806718
 20
1609.1987281944789
 11
2274.330040806718
 21
1608.9732608165859
  0
LINE
  8
_0-0_0
  6
CONTINUOUS
 62
    7
 10
2273.7236841175741
 20
1609.032078393428
 11
2273.7454265292372
 21
1609.00511395526
  0
LINE
  8
_0-0_0
  6
CONTINUOUS
 62
    7
 10
2273.7454265292372
 20
1609.00511395526
 11
2273.7678353695519
 21
1608.9805619567669
  0
LINE
  8
_0-0_0
  6
CONTINUOUS
 62
    7
 10
2273.7678353695519
 20
1608.9805619567669
 11
2273.7908639460679
 21
1608.9583841052561
  0
LINE
  8
_0-0_0
  6
CONTINUOUS
 62
    7
 10
2273.7908639460679
 20
1608.9583841052561
 11
2273.8144655663291
 21
1608.938542108034
  0
LINE
  8
_0-0_0
  6
CONTINUOUS
 62
    7
 10
2273.8144655663291
 20
1608.938542108034
 11
2273.8385935378828
 21
1608.9209976724073
  0
LINE
  8
_0-0_0
  6
CONTINUOUS
 62
    7
 10
2273.8385935378828
 20
1608.9209976724073
 11
2273.8632011682771
 21
1608.905712505682
  0
LINE
  8
_0-0_0
  6
CONTINUOUS
 62
    7
 10
2273.8632011682771
 20
1608.905712505682
 11
2273.8882417650561
 21
1608.8926483151661
  0
LINE
  8
_0-0_0
  6
CONTINUOUS
 62
    7
 10
2273.8882417650561
 20
1608.8926483151661
 11
2273.913668635767
 21
1608.881766808166
  0
LINE
  8
_0-0_0
  6
CONTINUOUS
 62
    7
 10
2273.913668635767
 20
1608.881766808166
 11
2273.9394350879579
 21
1608.873029691988
  0
LINE
  8
_0-0_0
  6
CONTINUOUS
 62
    7
 10
2273.9394350879579
 20
1608.873029691988
 11
2273.9654944291742
 21
1608.8663986739391
  0
LINE
  8
_0-0_0
  6
CONTINUOUS
 62
    7
 10
2273.9654944291742
 20
1608.8663986739391
 11
2273.9917999669628
 21
1608.8618354613259
  0
LINE
  8
_0-0_0
  6
CONTINUOUS
 62
    7
 10
2273.9917999669628
 20
1608.8618354613259
 11
2274.0183050088708
 21
1608.8593017614551
  0
LINE
  8
_0-0_0
  6
CONTINUOUS
 62
    7
 10
2274.0183050088708
 20
1608.8593017614551
 11
2274.0449628624451
 21
1608.8587592816341
  0
LINE
  8
_0-0_0
  6
CONTINUOUS
 62
    7
 10
2274.0449628624451
 20
1608.8587592816341
 11
2274.0717268352309
 21
1608.860169729169
  0
LINE
  8
_0-0_0
  6
CONTINUOUS
 62
    7
 10
2274.0717268352309
 20
1608.860169729169
 11
2274.0985502347748
 21
1608.863494811367
  0
LINE
  8
_0-0_0
  6
CONTINUOUS
 62
    7
 10
2274.0985502347748
 20
1608.863494811367
 11
2274.1253863686252
 21
1608.8686962355339
  0
LINE
  8
_0-0_0
  6
CONTINUOUS
 62
    7
 10
2274.1253863686252
 20
1608.8686962355339
 11
2274.1521885443281
 21
1608.875735708978
  0
LINE
  8
_0-0_0
  6
CONTINUOUS
 62
    7
 10
2274.1521885443281
 20
1608.875735708978
 11
2274.1789100694291
 21
1608.8845749390041
  0
LINE
  8
_0-0_0
  6
CONTINUOUS
 62
    7
 10
2274.1789100694291
 20
1608.8845749390041
 11
2274.2055042514739
 21
1608.89517563292
  0
LINE
  8
_0-0_0
  6
CONTINUOUS
 62
    7
 10
2274.2055042514739
 20
1608.89517563292
 11
2274.2319243980128
 21
1608.907499498034
  0
LINE
  8
_0-0_0
  6
CONTINUOUS
 62
    7
 10
2274.2319243980128
 20
1608.907499498034
 11
2274.258123816589
 21
1608.9215082416499
  0
LINE
  8
_0-0_0
  6
CONTINUOUS
 62
    7
 10
2274.258123816589
 20
1608.9215082416499
 11
2274.2840558147518
 21
1608.9371635710763
  0
LINE
  8
_0-0_0
  6
CONTINUOUS
 62
    7
 10
2274.2840558147518
 20
1608.9371635710763
 11
2274.3096737000451
 21
1608.954427193619
  0
LINE
  8
_0-0_0
  6
CONTINUOUS
 62
    7
 10
2274.3096737000451
 20
1608.954427193619
 11
2274.3349307800172
 21
1608.9732608165859
  0
LINE
  8
_0-0_0
  6
CONTINUOUS
 62
    7
 10
2274.613659258092
 20
1608.6987787913249
 11
2274.833708056572
 21
1608.6987787913249
  0
LINE
  8
_0-0_0
  6
CONTINUOUS
 62
    7
 10
2274.8385980298722
 20
1608.0811942344869
 11
2274.6185492313921
 21
1608.0811942344869
  0
LINE
  8
_0-0_0
  6
CONTINUOUS
 62
    7
 10
2274.613659258092
 20
1608.6987787913249
 11
2274.5955001384959
 21
1608.6751982926421
  0
LINE
  8
_0-0_0
  6
CONTINUOUS
 62
    7
 10
2274.5955001384959
 20
1608.6751982926421
 11
2274.5789200727768
 21
1608.6510519130479
  0
LINE
  8
_0-0_0
  6
CONTINUOUS
 62
    7
 10
2274.5789200727768
 20
1608.6510519130479
 11
2274.5639190609359
 21
1608.6263864547241
  0
LINE
  8
_0-0_0
  6
CONTINUOUS
 62
    7
 10
2274.5639190609359
 20
1608.6263864547241
 11
2274.5504971029732
 21
1608.6012487198491
  0
LINE
  8
_0-0_0
  6
CONTINUOUS
 62
    7
 10
2274.5504971029732
 20
1608.6012487198491
 11
2274.5386541988892
 21
1608.5756855106042
  0
LINE
  8
_0-0_0
  6
CONTINUOUS
 62
    7
 10
2274.5386541988892
 20
1608.5756855106042
 11
2274.528390348682
 21
1608.549743629171
  0
LINE
  8
_0-0_0
  6
CONTINUOUS
 62
    7
 10
2274.528390348682
 20
1608.549743629171
 11
2274.5197055523522
 21
1608.5234698777299
  0
LINE
  8
_0-0_0
  6
CONTINUOUS
 62
    7
 10
2274.5197055523522
 20
1608.5234698777299
 11
2274.512599809902
 21
1608.4969110584609
  0
LINE
  8
_0-0_0
  6
CONTINUOUS
 62
    7
 10
2274.512599809902
 20
1608.4969110584609
 11
2274.5070731213291
 21
1608.4701139735448
  0
LINE
  8
_0-0_0
  6
CONTINUOUS
 62
    7
 10
2274.5070731213291
 20
1608.4701139735448
 11
2274.503125486634
 21
1608.4431254251622
  0
LINE
  8
_0-0_0
  6
CONTINUOUS
 62
    7
 10
2274.503125486634
 20
1608.4431254251622
 11
2274.5007569058171
 21
1608.415992215494
  0
LINE
  8
_0-0_0
  6
CONTINUOUS
 62
    7
 10
2274.5007569058171
 20
1608.415992215494
 11
2274.499967378878
 21
1608.3887611467219
  0
LINE
  8
_0-0_0
  6
CONTINUOUS
 62
    7
 10
2274.499967378878
 20
1608.3887611467219
 11
2274.5007569058171
 21
1608.361479021024
  0
LINE
  8
_0-0_0
  6
CONTINUOUS
 62
    7
 10
2274.5007569058171
 20
1608.361479021024
 11
2274.503125486634
 21
1608.334192640584
  0
LINE
  8
_0-0_0
  6
CONTINUOUS
 62
    7
 10
2274.503125486634
 20
1608.334192640584
 11
2274.5070731213291
 21
1608.3069488075803
  0
LINE
  8
_0-0_0
  6
CONTINUOUS
 62
    7
 10
2274.5070731213291
 20
1608.3069488075803
 11
2274.512599809902
 21
1608.2797943241931
  0
LINE
  8
_0-0_0
  6
CONTINUOUS
 62
    7
 10
2274.512599809902
 20
1608.2797943241931
 11
2274.5197055523531
 21
1608.2527759926049
  0
LINE
  8
_0-0_0
  6
CONTINUOUS
 62
    7
 10
2274.5197055523531
 20
1608.2527759926049
 11
2274.528390348682
 21
1608.225940614996
  0
LINE
  8
_0-0_0
  6
CONTINUOUS
 62
    7
 10
2274.528390348682
 20
1608.225940614996
 11
2274.5386541988878
 21
1608.199334993546
  0
LINE
  8
_0-0_0
  6
CONTINUOUS
 62
    7
 10
2274.5386541988878
 20
1608.199334993546
 11
2274.5504971029732
 21
1608.1730059304371
  0
LINE
  8
_0-0_0
  6
CONTINUOUS
 62
    7
 10
2274.5504971029732
 20
1608.1730059304371
 11
2274.5639190609359
 21
1608.1470002278479
  0
LINE
  8
_0-0_0
  6
CONTINUOUS
 62
    7
 10
2274.5639190609359
 20
1608.1470002278479
 11
2274.5789200727768
 21
1608.121364687961
  0
LINE
  8
_0-0_0
  6
CONTINUOUS
 62
    7
 10
2274.5789200727768
 20
1608.121364687961
 11
2274.595500138495
 21
1608.096146112955
  0
LINE
  8
_0-0_0
  6
CONTINUOUS
 62
    7
 10
2274.595500138495
 20
1608.096146112955
 11
2274.613659258092
 21
1608.0713913050131
  0
LINE
  8
_0-0_0
  6
CONTINUOUS
 62
    7
 10
2274.330040806718
 20
1607.747894632384
 11
2274.330040806718
 21
1607.5812448313329
  0
LINE
  8
_0-0_0
  6
CONTINUOUS
 62
    7
 10
2273.665004437979
 20
1607.5812448313329
 11
2273.665004437979
 21
1607.8067122092259
  0
LINE
  8
_0-0_0
  6
CONTINUOUS
 62
    7
 10
2274.330040806718
 20
1607.747894632384
 11
2274.290921020322
 21
1607.8067122092259
  0
LINE
  8
_0-0_0
  6
CONTINUOUS
 62
    7
 10
2274.290921020322
 20
1607.8067122092259
 11
2274.1784516344319
 21
1607.865529786068
  0
LINE
  8
_0-0_0
  6
CONTINUOUS
 62
    7
 10
2274.1784516344319
 20
1607.865529786068
 11
2274.1197719548381
 21
1607.914544433436
  0
LINE
  8
_0-0_0
  6
CONTINUOUS
 62
    7
 10
2274.1197719548381
 20
1607.914544433436
 11
2273.9486228893529
 21
1607.914544433436
  0
LINE
  8
_0-0_0
  6
CONTINUOUS
 62
    7
 10
2273.9486228893529
 20
1607.914544433436
 11
2273.8410434767629
 21
1607.865529786068
  0
LINE
  8
_0-0_0
  6
CONTINUOUS
 62
    7
 10
2273.8410434767629
 20
1607.865529786068
 11
2273.7872537704679
 21
1607.865529786068
  0
LINE
  8
_0-0_0
  6
CONTINUOUS
 62
    7
 10
2273.7872537704679
 20
1607.865529786068
 11
2273.6698944112791
 21
1607.8067122092259
  0
LINE
  8
_0-0_0
  6
CONTINUOUS
 62
    7
 10
2272.9999680692399
 20
1609.9241449755259
 11
2272.9999680692399
 21
1609.747692245001
  0
LINE
  8
_0-0_0
  6
CONTINUOUS
 62
    7
 10
2272.9999680692399
 20
1609.747692245001
 11
2273.7187941442739
 21
1609.032078393428
  0
LINE
  8
_0-0_0
  6
CONTINUOUS
 62
    7
 10
2272.5109707392849
 20
1609.4732102197399
 11
2272.7212395911661
 21
1609.4143926428981
  0
LINE
  8
_0-0_0
  6
CONTINUOUS
 62
    7
 10
2272.7212395911661
 20
1609.4143926428981
 11
2273.3911659332039
 21
1608.6987787913249
  0
LINE
  8
_0-0_0
  6
CONTINUOUS
 62
    7
 10
2275.5036343986112
 20
1607.365580382914
 11
2275.322705386528
 21
1607.365580382914
  0
LINE
  8
_0-0_0
  6
CONTINUOUS
 62
    7
 10
2275.322705386528
 20
1607.365580382914
 11
2274.613659258092
 21
1608.0811942344869
  0
LINE
  8
_0-0_0
  6
CONTINUOUS
 62
    7
 10
2275.5623140782059
 20
1609.4143926428981
 11
2275.332485333126
 21
1609.4143926428981
  0
LINE
  8
_0-0_0
  6
CONTINUOUS
 62
    7
 10
2275.332485333126
 20
1609.4143926428981
 11
2274.613659258092
 21
1608.6987787913249
  0
LINE
  8
_0-0_0
  6
CONTINUOUS
 62
    7
 10
2272.9510683362441
 20
1606.914645627128
 11
2272.9510683362441
 21
1607.0812954281789
  0
LINE
  8
_0-0_0
  6
CONTINUOUS
 62
    7
 10
2272.9510683362441
 20
1607.0812954281789
 11
2273.6601144646802
 21
1607.8067122092259
  0
LINE
  8
_0-0_0
  6
CONTINUOUS
 62
    7
 10
2275.0537568550521
 20
1609.865327398684
 11
2275.0537568550521
 21
1609.6986775976329
  0
LINE
  8
_0-0_0
  6
CONTINUOUS
 62
    7
 10
2275.0537568550521
 20
1609.6986775976329
 11
2274.3349307800172
 21
1608.9732608165859
  0
LINE
  8
_0-0_0
  6
CONTINUOUS
 62
    7
 10
2272.5109707392849
 20
1607.365580382914
 11
2272.6723398581712
 21
1607.365580382914
  0
LINE
  8
_0-0_0
  6
CONTINUOUS
 62
    7
 10
2272.6723398581712
 20
1607.365580382914
 11
2273.3911659332039
 21
1608.0811942344869
  0
LINE
  8
_0-0_0
  6
CONTINUOUS
 62
    7
 10
2275.0537568550521
 20
1606.8656309797593
 11
2275.0537568550521
 21
1607.0322807808111
  0
LINE
  8
_0-0_0
  6
CONTINUOUS
 62
    7
 10
2275.0537568550521
 20
1607.0322807808111
 11
2274.3349307800172
 21
1607.747894632384
  0
LINE
  8
_0-0_0
  6
CONTINUOUS
 62
    7
 10
2275.0537568550521
 20
1607.0322807808111
 11
2275.322705386528
 21
1607.365580382914
  0
LINE
  8
_0-0_0
  6
CONTINUOUS
 62
    7
 10
2275.3275953598268
 20
1609.4143926428981
 11
2275.0586468283509
 21
1609.6986775976329
  0
LINE
  8
_0-0_0
  6
CONTINUOUS
 62
    7
 10
2272.6674498848711
 20
1607.365580382914
 11
2272.9461783629449
 21
1607.0812954281789
  0
LINE
  8
_0-0_0
  6
CONTINUOUS
 62
    7
 10
2272.9999680692399
 20
1609.747692245001
 11
2272.731019537765
 21
1609.4143926428981
  0
LINE
  8
_0-0_0
  6
CONTINUOUS
 62
    7
 10
2306.0537568550521
 20
1606.8656309797593
 11
2306.5036343986112
 21
1607.365580382914
  0
LINE
  8
_0-0_0
  6
CONTINUOUS
 62
    7
 10
2306.5036343986112
 20
1607.365580382914
 11
2305.8434880031709
 21
1608.0811942344869
  0
LINE
  8
_0-0_0
  6
CONTINUOUS
 62
    7
 10
2305.8385980298722
 20
1608.6987787913249
 11
2305.7310186172808
 21
1608.365479189222
  0
LINE
  8
_0-0_0
  6
CONTINUOUS
 62
    7
 10
2305.7310186172808
 20
1608.365479189222
 11
2305.8385980298722
 21
1608.0713913050131
  0
LINE
  8
_0-0_0
  6
CONTINUOUS
 62
    7
 10
2305.8385980298722
 20
1608.6987787913249
 11
2306.5574241049048
 21
1609.4143926428981
  0
LINE
  8
_0-0_0
  6
CONTINUOUS
 62
    7
 10
2306.5574241049048
 20
1609.4143926428981
 11
2306.048866881752
 21
1609.865327398684
  0
LINE
  8
_0-0_0
  6
CONTINUOUS
 62
    7
 10
2306.048866881752
 20
1609.865327398684
 11
2305.330040806718
 21
1609.1987281944789
  0
LINE
  8
_0-0_0
  6
CONTINUOUS
 62
    7
 10
2304.7236841175741
 20
1609.247742841847
 11
2305.0562023019429
 21
1609.0810930407949
  0
LINE
  8
_0-0_0
  6
CONTINUOUS
 62
    7
 10
2305.0562023019429
 20
1609.0810930407949
 11
2305.3349307800172
 21
1609.1987281944789
  0
LINE
  8
_0-0_0
  6
CONTINUOUS
 62
    7
 10
2304.7236841175741
 20
1609.247742841847
 11
2304.00485804254
 21
1609.9241449755259
  0
LINE
  8
_0-0_0
  6
CONTINUOUS
 62
    7
 10
2304.00485804254
 20
1609.9241449755259
 11
2303.5109707392849
 21
1609.4732102197399
  0
LINE
  8
_0-0_0
  6
CONTINUOUS
 62
    7
 10
2303.5109707392849
 20
1609.4732102197399
 11
2304.2249068410201
 21
1608.747793438693
  0
LINE
  8
_0-0_0
  6
CONTINUOUS
 62
    7
 10
2304.1760071080239
 20
1608.0811942344869
 11
2304.3471561735091
 21
1608.4144938365901
  0
LINE
  8
_0-0_0
  6
CONTINUOUS
 62
    7
 10
2304.3471561735091
 20
1608.4144938365901
 11
2304.2249068410201
 21
1608.747793438693
  0
LINE
  8
_0-0_0
  6
CONTINUOUS
 62
    7
 10
2304.1760071080239
 20
1608.0811942344869
 11
2303.515860712585
 21
1607.365580382914
  0
LINE
  8
_0-0_0
  6
CONTINUOUS
 62
    7
 10
2303.515860712585
 20
1607.365580382914
 11
2303.9559583095438
 21
1606.914645627128
  0
LINE
  8
_0-0_0
  6
CONTINUOUS
 62
    7
 10
2303.9559583095438
 20
1606.914645627128
 11
2304.665004437979
 21
1607.5812448313329
  0
LINE
  8
_0-0_0
  6
CONTINUOUS
 62
    7
 10
2305.330040806718
 20
1607.5812448313329
 11
2304.9975226223478
 21
1607.698879985016
  0
LINE
  8
_0-0_0
  6
CONTINUOUS
 62
    7
 10
2304.9975226223478
 20
1607.698879985016
 11
2304.6698944112791
 21
1607.5812448313329
  0
LINE
  8
_0-0_0
  6
CONTINUOUS
 62
    7
 10
2306.0537568550521
 20
1606.8656309797593
 11
2305.3349307800172
 21
1607.5812448313329
  0
LINE
  8
_0-0_0
  6
CONTINUOUS
 62
    7
 10
2304.3911659332039
 20
1608.0811942344869
 11
2304.180897081324
 21
1608.0811942344869
  0
LINE
  8
_0-0_0
  6
CONTINUOUS
 62
    7
 10
2304.2249068410201
 20
1608.747793438693
 11
2304.396055906504
 21
1608.6987787913249
  0
LINE
  8
_0-0_0
  6
CONTINUOUS
 62
    7
 10
2304.3911659332039
 20
1608.0811942344869
 11
2304.4165496487699
 21
1608.1102059134971
  0
LINE
  8
_0-0_0
  6
CONTINUOUS
 62
    7
 10
2304.4165496487699
 20
1608.1102059134971
 11
2304.440099624348
 21
1608.1384687576151
  0
LINE
  8
_0-0_0
  6
CONTINUOUS
 62
    7
 10
2304.440099624348
 20
1608.1384687576151
 11
2304.4617649227171
 21
1608.1660508427431
  0
LINE
  8
_0-0_0
  6
CONTINUOUS
 62
    7
 10
2304.4617649227171
 20
1608.1660508427431
 11
2304.481494606654
 21
1608.1930202447791
  0
LINE
  8
_0-0_0
  6
CONTINUOUS
 62
    7
 10
2304.481494606654
 20
1608.1930202447791
 11
2304.499237738939
 21
1608.219445039621
  0
LINE
  8
_0-0_0
  6
CONTINUOUS
 62
    7
 10
2304.499237738939
 20
1608.219445039621
 11
2304.514943382349
 21
1608.2453933031702
  0
LINE
  8
_0-0_0
  6
CONTINUOUS
 62
    7
 10
2304.514943382349
 20
1608.2453933031702
 11
2304.5285605996619
 21
1608.2709331113238
  0
LINE
  8
_0-0_0
  6
CONTINUOUS
 62
    7
 10
2304.5285605996619
 20
1608.2709331113238
 11
2304.5400384536579
 21
1608.2961325399831
  0
LINE
  8
_0-0_0
  6
CONTINUOUS
 62
    7
 10
2304.5400384536579
 20
1608.2961325399831
 11
2304.5493260071121
 21
1608.3210596650449
  0
LINE
  8
_0-0_0
  6
CONTINUOUS
 62
    7
 10
2304.5493260071121
 20
1608.3210596650449
 11
2304.5563723228038
 21
1608.3457825624091
  0
LINE
  8
_0-0_0
  6
CONTINUOUS
 62
    7
 10
2304.5563723228038
 20
1608.3457825624091
 11
2304.5611264635122
 21
1608.3703693079749
  0
LINE
  8
_0-0_0
  6
CONTINUOUS
 62
    7
 10
2304.5611264635122
 20
1608.3703693079749
 11
2304.5635374920139
 21
1608.3948879776431
  0
LINE
  8
_0-0_0
  6
CONTINUOUS
 62
    7
 10
2304.5635374920139
 20
1608.3948879776431
 11
2304.5635544710881
 21
1608.4194066473101
  0
LINE
  8
_0-0_0
  6
CONTINUOUS
 62
    7
 10
2304.5635544710881
 20
1608.4194066473101
 11
2304.5611264635122
 21
1608.4439933928761
  0
LINE
  8
_0-0_0
  6
CONTINUOUS
 62
    7
 10
2304.5611264635122
 20
1608.4439933928761
 11
2304.5562025320651
 21
1608.468716290241
  0
LINE
  8
_0-0_0
  6
CONTINUOUS
 62
    7
 10
2304.5562025320651
 20
1608.468716290241
 11
2304.5487317395232
 21
1608.493643415303
  0
LINE
  8
_0-0_0
  6
CONTINUOUS
 62
    7
 10
2304.5487317395232
 20
1608.493643415303
 11
2304.5386631486672
 21
1608.518842843961
  0
LINE
  8
_0-0_0
  6
CONTINUOUS
 62
    7
 10
2304.5386631486672
 20
1608.518842843961
 11
2304.525945822274
 21
1608.544382652115
  0
LINE
  8
_0-0_0
  6
CONTINUOUS
 62
    7
 10
2304.525945822274
 20
1608.544382652115
 11
2304.5105288231211
 21
1608.5703309156638
  0
LINE
  8
_0-0_0
  6
CONTINUOUS
 62
    7
 10
2304.5105288231211
 20
1608.5703309156638
 11
2304.492361213986
 21
1608.5967557105071
  0
LINE
  8
_0-0_0
  6
CONTINUOUS
 62
    7
 10
2304.492361213986
 20
1608.5967557105071
 11
2304.4713920576501
 21
1608.6237251125431
  0
LINE
  8
_0-0_0
  6
CONTINUOUS
 62
    7
 10
2304.4713920576501
 20
1608.6237251125431
 11
2304.447570416889
 21
1608.6513071976699
  0
LINE
  8
_0-0_0
  6
CONTINUOUS
 62
    7
 10
2304.447570416889
 20
1608.6513071976699
 11
2304.4208453544811
 21
1608.6795700417888
  0
LINE
  8
_0-0_0
  6
CONTINUOUS
 62
    7
 10
2304.4208453544811
 20
1608.6795700417888
 11
2304.3911659332039
 21
1608.7085817207981
  0
LINE
  8
_0-0_0
  6
CONTINUOUS
 62
    7
 10
2304.7236841175741
 20
1609.032078393428
 11
2304.7236841175741
 21
1609.237939912374
  0
LINE
  8
_0-0_0
  6
CONTINUOUS
 62
    7
 10
2305.330040806718
 20
1609.1987281944789
 11
2305.330040806718
 21
1608.9732608165859
  0
LINE
  8
_0-0_0
  6
CONTINUOUS
 62
    7
 10
2304.7236841175741
 20
1609.032078393428
 11
2304.7454265292358
 21
1609.00511395526
  0
LINE
  8
_0-0_0
  6
CONTINUOUS
 62
    7
 10
2304.7454265292358
 20
1609.00511395526
 11
2304.7678353695519
 21
1608.9805619567669
  0
LINE
  8
_0-0_0
  6
CONTINUOUS
 62
    7
 10
2304.7678353695519
 20
1608.9805619567669
 11
2304.7908639460679
 21
1608.9583841052561
  0
LINE
  8
_0-0_0
  6
CONTINUOUS
 62
    7
 10
2304.7908639460679
 20
1608.9583841052561
 11
2304.81446556633
 21
1608.938542108034
  0
LINE
  8
_0-0_0
  6
CONTINUOUS
 62
    7
 10
2304.81446556633
 20
1608.938542108034
 11
2304.8385935378828
 21
1608.9209976724073
  0
LINE
  8
_0-0_0
  6
CONTINUOUS
 62
    7
 10
2304.8385935378828
 20
1608.9209976724073
 11
2304.8632011682771
 21
1608.905712505682
  0
LINE
  8
_0-0_0
  6
CONTINUOUS
 62
    7
 10
2304.8632011682771
 20
1608.905712505682
 11
2304.8882417650561
 21
1608.8926483151661
  0
LINE
  8
_0-0_0
  6
CONTINUOUS
 62
    7
 10
2304.8882417650561
 20
1608.8926483151661
 11
2304.913668635767
 21
1608.881766808166
  0
LINE
  8
_0-0_0
  6
CONTINUOUS
 62
    7
 10
2304.913668635767
 20
1608.881766808166
 11
2304.9394350879579
 21
1608.873029691988
  0
LINE
  8
_0-0_0
  6
CONTINUOUS
 62
    7
 10
2304.9394350879579
 20
1608.873029691988
 11
2304.9654944291742
 21
1608.8663986739391
  0
LINE
  8
_0-0_0
  6
CONTINUOUS
 62
    7
 10
2304.9654944291742
 20
1608.8663986739391
 11
2304.9917999669628
 21
1608.8618354613259
  0
LINE
  8
_0-0_0
  6
CONTINUOUS
 62
    7
 10
2304.9917999669628
 20
1608.8618354613259
 11
2305.0183050088708
 21
1608.8593017614551
  0
LINE
  8
_0-0_0
  6
CONTINUOUS
 62
    7
 10
2305.0183050088708
 20
1608.8593017614551
 11
2305.0449628624451
 21
1608.8587592816341
  0
LINE
  8
_0-0_0
  6
CONTINUOUS
 62
    7
 10
2305.0449628624451
 20
1608.8587592816341
 11
2305.07172683523
 21
1608.860169729169
  0
LINE
  8
_0-0_0
  6
CONTINUOUS
 62
    7
 10
2305.07172683523
 20
1608.860169729169
 11
2305.0985502347748
 21
1608.863494811367
  0
LINE
  8
_0-0_0
  6
CONTINUOUS
 62
    7
 10
2305.0985502347748
 20
1608.863494811367
 11
2305.1253863686252
 21
1608.8686962355339
  0
LINE
  8
_0-0_0
  6
CONTINUOUS
 62
    7
 10
2305.1253863686252
 20
1608.8686962355339
 11
2305.1521885443281
 21
1608.875735708978
  0
LINE
  8
_0-0_0
  6
CONTINUOUS
 62
    7
 10
2305.1521885443281
 20
1608.875735708978
 11
2305.1789100694291
 21
1608.8845749390041
  0
LINE
  8
_0-0_0
  6
CONTINUOUS
 62
    7
 10
2305.1789100694291
 20
1608.8845749390041
 11
2305.2055042514748
 21
1608.89517563292
  0
LINE
  8
_0-0_0
  6
CONTINUOUS
 62
    7
 10
2305.2055042514748
 20
1608.89517563292
 11
2305.2319243980128
 21
1608.907499498034
  0
LINE
  8
_0-0_0
  6
CONTINUOUS
 62
    7
 10
2305.2319243980128
 20
1608.907499498034
 11
2305.258123816589
 21
1608.9215082416499
  0
LINE
  8
_0-0_0
  6
CONTINUOUS
 62
    7
 10
2305.258123816589
 20
1608.9215082416499
 11
2305.2840558147518
 21
1608.9371635710763
  0
LINE
  8
_0-0_0
  6
CONTINUOUS
 62
    7
 10
2305.2840558147518
 20
1608.9371635710763
 11
2305.3096737000451
 21
1608.954427193619
  0
LINE
  8
_0-0_0
  6
CONTINUOUS
 62
    7
 10
2305.3096737000451
 20
1608.954427193619
 11
2305.3349307800172
 21
1608.9732608165859
  0
LINE
  8
_0-0_0
  6
CONTINUOUS
 62
    7
 10
2305.613659258092
 20
1608.6987787913249
 11
2305.833708056572
 21
1608.6987787913249
  0
LINE
  8
_0-0_0
  6
CONTINUOUS
 62
    7
 10
2305.8385980298722
 20
1608.0811942344869
 11
2305.6185492313921
 21
1608.0811942344869
  0
LINE
  8
_0-0_0
  6
CONTINUOUS
 62
    7
 10
2305.613659258092
 20
1608.6987787913249
 11
2305.5955001384959
 21
1608.6751982926421
  0
LINE
  8
_0-0_0
  6
CONTINUOUS
 62
    7
 10
2305.5955001384959
 20
1608.6751982926421
 11
2305.5789200727768
 21
1608.6510519130479
  0
LINE
  8
_0-0_0
  6
CONTINUOUS
 62
    7
 10
2305.5789200727768
 20
1608.6510519130479
 11
2305.5639190609359
 21
1608.6263864547241
  0
LINE
  8
_0-0_0
  6
CONTINUOUS
 62
    7
 10
2305.5639190609359
 20
1608.6263864547241
 11
2305.5504971029741
 21
1608.6012487198491
  0
LINE
  8
_0-0_0
  6
CONTINUOUS
 62
    7
 10
2305.5504971029741
 20
1608.6012487198491
 11
2305.5386541988892
 21
1608.5756855106042
  0
LINE
  8
_0-0_0
  6
CONTINUOUS
 62
    7
 10
2305.5386541988892
 20
1608.5756855106042
 11
2305.528390348682
 21
1608.549743629171
  0
LINE
  8
_0-0_0
  6
CONTINUOUS
 62
    7
 10
2305.528390348682
 20
1608.549743629171
 11
2305.5197055523522
 21
1608.5234698777299
  0
LINE
  8
_0-0_0
  6
CONTINUOUS
 62
    7
 10
2305.5197055523522
 20
1608.5234698777299
 11
2305.512599809902
 21
1608.4969110584609
  0
LINE
  8
_0-0_0
  6
CONTINUOUS
 62
    7
 10
2305.512599809902
 20
1608.4969110584609
 11
2305.5070731213291
 21
1608.4701139735448
  0
LINE
  8
_0-0_0
  6
CONTINUOUS
 62
    7
 10
2305.5070731213291
 20
1608.4701139735448
 11
2305.503125486634
 21
1608.4431254251622
  0
LINE
  8
_0-0_0
  6
CONTINUOUS
 62
    7
 10
2305.503125486634
 20
1608.4431254251622
 11
2305.5007569058171
 21
1608.415992215494
  0
LINE
  8
_0-0_0
  6
CONTINUOUS
 62
    7
 10
2305.5007569058171
 20
1608.415992215494
 11
2305.499967378878
 21
1608.3887611467219
  0
LINE
  8
_0-0_0
  6
CONTINUOUS
 62
    7
 10
2305.499967378878
 20
1608.3887611467219
 11
2305.5007569058171
 21
1608.361479021024
  0
LINE
  8
_0-0_0
  6
CONTINUOUS
 62
    7
 10
2305.5007569058171
 20
1608.361479021024
 11
2305.503125486634
 21
1608.334192640584
  0
LINE
  8
_0-0_0
  6
CONTINUOUS
 62
    7
 10
2305.503125486634
 20
1608.334192640584
 11
2305.5070731213291
 21
1608.3069488075803
  0
LINE
  8
_0-0_0
  6
CONTINUOUS
 62
    7
 10
2305.5070731213291
 20
1608.3069488075803
 11
2305.512599809902
 21
1608.2797943241931
  0
LINE
  8
_0-0_0
  6
CONTINUOUS
 62
    7
 10
2305.512599809902
 20
1608.2797943241931
 11
2305.5197055523531
 21
1608.2527759926049
  0
LINE
  8
_0-0_0
  6
CONTINUOUS
 62
    7
 10
2305.5197055523531
 20
1608.2527759926049
 11
2305.528390348682
 21
1608.225940614996
  0
LINE
  8
_0-0_0
  6
CONTINUOUS
 62
    7
 10
2305.528390348682
 20
1608.225940614996
 11
2305.5386541988878
 21
1608.199334993546
  0
LINE
  8
_0-0_0
  6
CONTINUOUS
 62
    7
 10
2305.5386541988878
 20
1608.199334993546
 11
2305.5504971029732
 21
1608.1730059304371
  0
LINE
  8
_0-0_0
  6
CONTINUOUS
 62
    7
 10
2305.5504971029732
 20
1608.1730059304371
 11
2305.5639190609359
 21
1608.1470002278479
  0
LINE
  8
_0-0_0
  6
CONTINUOUS
 62
    7
 10
2305.5639190609359
 20
1608.1470002278479
 11
2305.5789200727768
 21
1608.121364687961
  0
LINE
  8
_0-0_0
  6
CONTINUOUS
 62
    7
 10
2305.5789200727768
 20
1608.121364687961
 11
2305.595500138495
 21
1608.096146112955
  0
LINE
  8
_0-0_0
  6
CONTINUOUS
 62
    7
 10
2305.595500138495
 20
1608.096146112955
 11
2305.613659258092
 21
1608.0713913050131
  0
LINE
  8
_0-0_0
  6
CONTINUOUS
 62
    7
 10
2305.330040806718
 20
1607.747894632384
 11
2305.330040806718
 21
1607.5812448313329
  0
LINE
  8
_0-0_0
  6
CONTINUOUS
 62
    7
 10
2304.665004437979
 20
1607.5812448313329
 11
2304.665004437979
 21
1607.8067122092259
  0
LINE
  8
_0-0_0
  6
CONTINUOUS
 62
    7
 10
2305.330040806718
 20
1607.747894632384
 11
2305.290921020322
 21
1607.8067122092259
  0
LINE
  8
_0-0_0
  6
CONTINUOUS
 62
    7
 10
2305.290921020322
 20
1607.8067122092259
 11
2305.1784516344319
 21
1607.865529786068
  0
LINE
  8
_0-0_0
  6
CONTINUOUS
 62
    7
 10
2305.1784516344319
 20
1607.865529786068
 11
2305.1197719548381
 21
1607.914544433436
  0
LINE
  8
_0-0_0
  6
CONTINUOUS
 62
    7
 10
2305.1197719548381
 20
1607.914544433436
 11
2304.9486228893529
 21
1607.914544433436
  0
LINE
  8
_0-0_0
  6
CONTINUOUS
 62
    7
 10
2304.9486228893529
 20
1607.914544433436
 11
2304.8410434767629
 21
1607.865529786068
  0
LINE
  8
_0-0_0
  6
CONTINUOUS
 62
    7
 10
2304.8410434767629
 20
1607.865529786068
 11
2304.7872537704679
 21
1607.865529786068
  0
LINE
  8
_0-0_0
  6
CONTINUOUS
 62
    7
 10
2304.7872537704679
 20
1607.865529786068
 11
2304.6698944112791
 21
1607.8067122092259
  0
LINE
  8
_0-0_0
  6
CONTINUOUS
 62
    7
 10
2303.9999680692399
 20
1609.9241449755259
 11
2303.9999680692399
 21
1609.747692245001
  0
LINE
  8
_0-0_0
  6
CONTINUOUS
 62
    7
 10
2303.9999680692399
 20
1609.747692245001
 11
2304.7187941442739
 21
1609.032078393428
  0
LINE
  8
_0-0_0
  6
CONTINUOUS
 62
    7
 10
2303.5109707392849
 20
1609.4732102197399
 11
2303.7212395911661
 21
1609.4143926428981
  0
LINE
  8
_0-0_0
  6
CONTINUOUS
 62
    7
 10
2303.7212395911661
 20
1609.4143926428981
 11
2304.3911659332039
 21
1608.6987787913249
  0
LINE
  8
_0-0_0
  6
CONTINUOUS
 62
    7
 10
2306.5036343986112
 20
1607.365580382914
 11
2306.322705386528
 21
1607.365580382914
  0
LINE
  8
_0-0_0
  6
CONTINUOUS
 62
    7
 10
2306.322705386528
 20
1607.365580382914
 11
2305.613659258092
 21
1608.0811942344869
  0
LINE
  8
_0-0_0
  6
CONTINUOUS
 62
    7
 10
2306.5623140782059
 20
1609.4143926428981
 11
2306.332485333126
 21
1609.4143926428981
  0
LINE
  8
_0-0_0
  6
CONTINUOUS
 62
    7
 10
2306.332485333126
 20
1609.4143926428981
 11
2305.613659258092
 21
1608.6987787913249
  0
LINE
  8
_0-0_0
  6
CONTINUOUS
 62
    7
 10
2303.9510683362441
 20
1606.914645627128
 11
2303.9510683362441
 21
1607.0812954281789
  0
LINE
  8
_0-0_0
  6
CONTINUOUS
 62
    7
 10
2303.9510683362441
 20
1607.0812954281789
 11
2304.6601144646802
 21
1607.8067122092259
  0
LINE
  8
_0-0_0
  6
CONTINUOUS
 62
    7
 10
2306.0537568550521
 20
1609.865327398684
 11
2306.0537568550521
 21
1609.6986775976329
  0
LINE
  8
_0-0_0
  6
CONTINUOUS
 62
    7
 10
2306.0537568550521
 20
1609.6986775976329
 11
2305.3349307800172
 21
1608.9732608165859
  0
LINE
  8
_0-0_0
  6
CONTINUOUS
 62
    7
 10
2303.5109707392849
 20
1607.365580382914
 11
2303.6723398581712
 21
1607.365580382914
  0
LINE
  8
_0-0_0
  6
CONTINUOUS
 62
    7
 10
2303.6723398581712
 20
1607.365580382914
 11
2304.3911659332039
 21
1608.0811942344869
  0
LINE
  8
_0-0_0
  6
CONTINUOUS
 62
    7
 10
2306.0537568550521
 20
1606.8656309797593
 11
2306.0537568550521
 21
1607.0322807808111
  0
LINE
  8
_0-0_0
  6
CONTINUOUS
 62
    7
 10
2306.0537568550521
 20
1607.0322807808111
 11
2305.3349307800172
 21
1607.747894632384
  0
LINE
  8
_0-0_0
  6
CONTINUOUS
 62
    7
 10
2306.0537568550521
 20
1607.0322807808111
 11
2306.322705386528
 21
1607.365580382914
  0
LINE
  8
_0-0_0
  6
CONTINUOUS
 62
    7
 10
2306.3275953598268
 20
1609.4143926428981
 11
2306.0586468283509
 21
1609.6986775976329
  0
LINE
  8
_0-0_0
  6
CONTINUOUS
 62
    7
 10
2303.6674498848711
 20
1607.365580382914
 11
2303.9461783629449
 21
1607.0812954281789
  0
LINE
  8
_0-0_0
  6
CONTINUOUS
 62
    7
 10
2303.9999680692399
 20
1609.747692245001
 11
2303.731019537765
 21
1609.4143926428981
  0
LINE
  8
_0-0_0
  6
CONTINUOUS
 62
    7
 10
2306.0537568550521
 20
2381.8656309797589
 11
2306.5036343986112
 21
2382.3655803829138
  0
LINE
  8
_0-0_0
  6
CONTINUOUS
 62
    7
 10
2306.5036343986112
 20
2382.3655803829138
 11
2305.8434880031709
 21
2383.0811942344872
  0
LINE
  8
_0-0_0
  6
CONTINUOUS
 62
    7
 10
2305.8385980298722
 20
2383.698778791324
 11
2305.7310186172808
 21
2383.3654791892218
  0
LINE
  8
_0-0_0
  6
CONTINUOUS
 62
    7
 10
2305.7310186172808
 20
2383.3654791892218
 11
2305.8385980298722
 21
2383.071391305014
  0
LINE
  8
_0-0_0
  6
CONTINUOUS
 62
    7
 10
2305.8385980298722
 20
2383.698778791324
 11
2306.5574241049048
 21
2384.4143926428978
  0
LINE
  8
_0-0_0
  6
CONTINUOUS
 62
    7
 10
2306.5574241049048
 20
2384.4143926428978
 11
2306.048866881752
 21
2384.8653273986838
  0
LINE
  8
_0-0_0
  6
CONTINUOUS
 62
    7
 10
2306.048866881752
 20
2384.8653273986838
 11
2305.330040806718
 21
2384.1987281944789
  0
LINE
  8
_0-0_0
  6
CONTINUOUS
 62
    7
 10
2304.7236841175741
 20
2384.247742841847
 11
2305.0562023019429
 21
2384.0810930407961
  0
LINE
  8
_0-0_0
  6
CONTINUOUS
 62
    7
 10
2305.0562023019429
 20
2384.0810930407961
 11
2305.3349307800172
 21
2384.1987281944789
  0
LINE
  8
_0-0_0
  6
CONTINUOUS
 62
    7
 10
2304.7236841175741
 20
2384.247742841847
 11
2304.00485804254
 21
2384.9241449755259
  0
LINE
  8
_0-0_0
  6
CONTINUOUS
 62
    7
 10
2304.00485804254
 20
2384.9241449755259
 11
2303.5109707392849
 21
2384.4732102197399
  0
LINE
  8
_0-0_0
  6
CONTINUOUS
 62
    7
 10
2303.5109707392849
 20
2384.4732102197399
 11
2304.2249068410201
 21
2383.747793438693
  0
LINE
  8
_0-0_0
  6
CONTINUOUS
 62
    7
 10
2304.1760071080239
 20
2383.0811942344872
 11
2304.3471561735091
 21
2383.4144938365898
  0
LINE
  8
_0-0_0
  6
CONTINUOUS
 62
    7
 10
2304.3471561735091
 20
2383.4144938365898
 11
2304.2249068410201
 21
2383.747793438693
  0
LINE
  8
_0-0_0
  6
CONTINUOUS
 62
    7
 10
2304.1760071080239
 20
2383.0811942344872
 11
2303.515860712585
 21
2382.3655803829138
  0
LINE
  8
_0-0_0
  6
CONTINUOUS
 62
    7
 10
2303.515860712585
 20
2382.3655803829138
 11
2303.9559583095438
 21
2381.9146456271278
  0
LINE
  8
_0-0_0
  6
CONTINUOUS
 62
    7
 10
2303.9559583095438
 20
2381.9146456271278
 11
2304.665004437979
 21
2382.5812448313332
  0
LINE
  8
_0-0_0
  6
CONTINUOUS
 62
    7
 10
2305.330040806718
 20
2382.5812448313332
 11
2304.9975226223478
 21
2382.698879985016
  0
LINE
  8
_0-0_0
  6
CONTINUOUS
 62
    7
 10
2304.9975226223478
 20
2382.698879985016
 11
2304.6698944112791
 21
2382.5812448313332
  0
LINE
  8
_0-0_0
  6
CONTINUOUS
 62
    7
 10
2306.0537568550521
 20
2381.8656309797589
 11
2305.3349307800172
 21
2382.5812448313332
  0
LINE
  8
_0-0_0
  6
CONTINUOUS
 62
    7
 10
2304.3911659332039
 20
2383.0811942344872
 11
2304.180897081324
 21
2383.0811942344872
  0
LINE
  8
_0-0_0
  6
CONTINUOUS
 62
    7
 10
2304.2249068410201
 20
2383.747793438693
 11
2304.396055906504
 21
2383.698778791324
  0
LINE
  8
_0-0_0
  6
CONTINUOUS
 62
    7
 10
2304.3911659332039
 20
2383.0811942344872
 11
2304.4165496487699
 21
2383.1102059134969
  0
LINE
  8
_0-0_0
  6
CONTINUOUS
 62
    7
 10
2304.4165496487699
 20
2383.1102059134969
 11
2304.440099624348
 21
2383.138468757616
  0
LINE
  8
_0-0_0
  6
CONTINUOUS
 62
    7
 10
2304.440099624348
 20
2383.138468757616
 11
2304.4617649227171
 21
2383.1660508427431
  0
LINE
  8
_0-0_0
  6
CONTINUOUS
 62
    7
 10
2304.4617649227171
 20
2383.1660508427431
 11
2304.481494606654
 21
2383.1930202447788
  0
LINE
  8
_0-0_0
  6
CONTINUOUS
 62
    7
 10
2304.481494606654
 20
2383.1930202447788
 11
2304.499237738939
 21
2383.219445039621
  0
LINE
  8
_0-0_0
  6
CONTINUOUS
 62
    7
 10
2304.499237738939
 20
2383.219445039621
 11
2304.514943382349
 21
2383.2453933031702
  0
LINE
  8
_0-0_0
  6
CONTINUOUS
 62
    7
 10
2304.514943382349
 20
2383.2453933031702
 11
2304.5285605996619
 21
2383.2709331113251
  0
LINE
  8
_0-0_0
  6
CONTINUOUS
 62
    7
 10
2304.5285605996619
 20
2383.2709331113251
 11
2304.5400384536579
 21
2383.2961325399829
  0
LINE
  8
_0-0_0
  6
CONTINUOUS
 62
    7
 10
2304.5400384536579
 20
2383.2961325399829
 11
2304.5493260071121
 21
2383.3210596650438
  0
LINE
  8
_0-0_0
  6
CONTINUOUS
 62
    7
 10
2304.5493260071121
 20
2383.3210596650438
 11
2304.5563723228038
 21
2383.3457825624091
  0
LINE
  8
_0-0_0
  6
CONTINUOUS
 62
    7
 10
2304.5563723228038
 20
2383.3457825624091
 11
2304.5611264635122
 21
2383.370369307976
  0
LINE
  8
_0-0_0
  6
CONTINUOUS
 62
    7
 10
2304.5611264635122
 20
2383.370369307976
 11
2304.5635374920139
 21
2383.3948879776431
  0
LINE
  8
_0-0_0
  6
CONTINUOUS
 62
    7
 10
2304.5635374920139
 20
2383.3948879776431
 11
2304.5635544710881
 21
2383.4194066473101
  0
LINE
  8
_0-0_0
  6
CONTINUOUS
 62
    7
 10
2304.5635544710881
 20
2383.4194066473101
 11
2304.5611264635122
 21
2383.443993392877
  0
LINE
  8
_0-0_0
  6
CONTINUOUS
 62
    7
 10
2304.5611264635122
 20
2383.443993392877
 11
2304.5562025320651
 21
2383.468716290241
  0
LINE
  8
_0-0_0
  6
CONTINUOUS
 62
    7
 10
2304.5562025320651
 20
2383.468716290241
 11
2304.5487317395232
 21
2383.4936434153028
  0
LINE
  8
_0-0_0
  6
CONTINUOUS
 62
    7
 10
2304.5487317395232
 20
2383.4936434153028
 11
2304.5386631486672
 21
2383.518842843961
  0
LINE
  8
_0-0_0
  6
CONTINUOUS
 62
    7
 10
2304.5386631486672
 20
2383.518842843961
 11
2304.525945822274
 21
2383.544382652115
  0
LINE
  8
_0-0_0
  6
CONTINUOUS
 62
    7
 10
2304.525945822274
 20
2383.544382652115
 11
2304.5105288231211
 21
2383.5703309156638
  0
LINE
  8
_0-0_0
  6
CONTINUOUS
 62
    7
 10
2304.5105288231211
 20
2383.5703309156638
 11
2304.492361213986
 21
2383.5967557105068
  0
LINE
  8
_0-0_0
  6
CONTINUOUS
 62
    7
 10
2304.492361213986
 20
2383.5967557105068
 11
2304.4713920576501
 21
2383.6237251125431
  0
LINE
  8
_0-0_0
  6
CONTINUOUS
 62
    7
 10
2304.4713920576501
 20
2383.6237251125431
 11
2304.447570416889
 21
2383.651307197671
  0
LINE
  8
_0-0_0
  6
CONTINUOUS
 62
    7
 10
2304.447570416889
 20
2383.651307197671
 11
2304.4208453544811
 21
2383.6795700417888
  0
LINE
  8
_0-0_0
  6
CONTINUOUS
 62
    7
 10
2304.4208453544811
 20
2383.6795700417888
 11
2304.3911659332039
 21
2383.708581720799
  0
LINE
  8
_0-0_0
  6
CONTINUOUS
 62
    7
 10
2304.7236841175741
 20
2384.032078393428
 11
2304.7236841175741
 21
2384.2379399123729
  0
LINE
  8
_0-0_0
  6
CONTINUOUS
 62
    7
 10
2305.330040806718
 20
2384.1987281944789
 11
2305.330040806718
 21
2383.9732608165859
  0
LINE
  8
_0-0_0
  6
CONTINUOUS
 62
    7
 10
2304.7236841175741
 20
2384.032078393428
 11
2304.7454265292358
 21
2384.0051139552602
  0
LINE
  8
_0-0_0
  6
CONTINUOUS
 62
    7
 10
2304.7454265292358
 20
2384.0051139552602
 11
2304.7678353695519
 21
2383.980561956766
  0
LINE
  8
_0-0_0
  6
CONTINUOUS
 62
    7
 10
2304.7678353695519
 20
2383.980561956766
 11
2304.7908639460679
 21
2383.9583841052558
  0
LINE
  8
_0-0_0
  6
CONTINUOUS
 62
    7
 10
2304.7908639460679
 20
2383.9583841052558
 11
2304.81446556633
 21
2383.9385421080342
  0
LINE
  8
_0-0_0
  6
CONTINUOUS
 62
    7
 10
2304.81446556633
 20
2383.9385421080342
 11
2304.8385935378828
 21
2383.9209976724069
  0
LINE
  8
_0-0_0
  6
CONTINUOUS
 62
    7
 10
2304.8385935378828
 20
2383.9209976724069
 11
2304.8632011682771
 21
2383.905712505682
  0
LINE
  8
_0-0_0
  6
CONTINUOUS
 62
    7
 10
2304.8632011682771
 20
2383.905712505682
 11
2304.8882417650561
 21
2383.8926483151658
  0
LINE
  8
_0-0_0
  6
CONTINUOUS
 62
    7
 10
2304.8882417650561
 20
2383.8926483151658
 11
2304.913668635767
 21
2383.881766808166
  0
LINE
  8
_0-0_0
  6
CONTINUOUS
 62
    7
 10
2304.913668635767
 20
2383.881766808166
 11
2304.9394350879579
 21
2383.873029691988
  0
LINE
  8
_0-0_0
  6
CONTINUOUS
 62
    7
 10
2304.9394350879579
 20
2383.873029691988
 11
2304.9654944291742
 21
2383.8663986739389
  0
LINE
  8
_0-0_0
  6
CONTINUOUS
 62
    7
 10
2304.9654944291742
 20
2383.8663986739389
 11
2304.9917999669628
 21
2383.861835461325
  0
LINE
  8
_0-0_0
  6
CONTINUOUS
 62
    7
 10
2304.9917999669628
 20
2383.861835461325
 11
2305.0183050088708
 21
2383.8593017614548
  0
LINE
  8
_0-0_0
  6
CONTINUOUS
 62
    7
 10
2305.0183050088708
 20
2383.8593017614548
 11
2305.0449628624451
 21
2383.8587592816339
  0
LINE
  8
_0-0_0
  6
CONTINUOUS
 62
    7
 10
2305.0449628624451
 20
2383.8587592816339
 11
2305.07172683523
 21
2383.8601697291688
  0
LINE
  8
_0-0_0
  6
CONTINUOUS
 62
    7
 10
2305.07172683523
 20
2383.8601697291688
 11
2305.0985502347748
 21
2383.8634948113672
  0
LINE
  8
_0-0_0
  6
CONTINUOUS
 62
    7
 10
2305.0985502347748
 20
2383.8634948113672
 11
2305.1253863686252
 21
2383.8686962355341
  0
LINE
  8
_0-0_0
  6
CONTINUOUS
 62
    7
 10
2305.1253863686252
 20
2383.8686962355341
 11
2305.1521885443281
 21
2383.875735708978
  0
LINE
  8
_0-0_0
  6
CONTINUOUS
 62
    7
 10
2305.1521885443281
 20
2383.875735708978
 11
2305.1789100694291
 21
2383.8845749390039
  0
LINE
  8
_0-0_0
  6
CONTINUOUS
 62
    7
 10
2305.1789100694291
 20
2383.8845749390039
 11
2305.2055042514748
 21
2383.8951756329211
  0
LINE
  8
_0-0_0
  6
CONTINUOUS
 62
    7
 10
2305.2055042514748
 20
2383.8951756329211
 11
2305.2319243980128
 21
2383.9074994980342
  0
LINE
  8
_0-0_0
  6
CONTINUOUS
 62
    7
 10
2305.2319243980128
 20
2383.9074994980342
 11
2305.258123816589
 21
2383.9215082416499
  0
LINE
  8
_0-0_0
  6
CONTINUOUS
 62
    7
 10
2305.258123816589
 20
2383.9215082416499
 11
2305.2840558147518
 21
2383.9371635710768
  0
LINE
  8
_0-0_0
  6
CONTINUOUS
 62
    7
 10
2305.2840558147518
 20
2383.9371635710768
 11
2305.3096737000451
 21
2383.9544271936188
  0
LINE
  8
_0-0_0
  6
CONTINUOUS
 62
    7
 10
2305.3096737000451
 20
2383.9544271936188
 11
2305.3349307800172
 21
2383.9732608165859
  0
LINE
  8
_0-0_0
  6
CONTINUOUS
 62
    7
 10
2305.613659258092
 20
2383.698778791324
 11
2305.833708056572
 21
2383.698778791324
  0
LINE
  8
_0-0_0
  6
CONTINUOUS
 62
    7
 10
2305.8385980298722
 20
2383.0811942344872
 11
2305.6185492313921
 21
2383.0811942344872
  0
LINE
  8
_0-0_0
  6
CONTINUOUS
 62
    7
 10
2305.613659258092
 20
2383.698778791324
 11
2305.5955001384959
 21
2383.675198292643
  0
LINE
  8
_0-0_0
  6
CONTINUOUS
 62
    7
 10
2305.5955001384959
 20
2383.675198292643
 11
2305.5789200727768
 21
2383.6510519130479
  0
LINE
  8
_0-0_0
  6
CONTINUOUS
 62
    7
 10
2305.5789200727768
 20
2383.6510519130479
 11
2305.5639190609359
 21
2383.6263864547241
  0
LINE
  8
_0-0_0
  6
CONTINUOUS
 62
    7
 10
2305.5639190609359
 20
2383.6263864547241
 11
2305.5504971029741
 21
2383.6012487198491
  0
LINE
  8
_0-0_0
  6
CONTINUOUS
 62
    7
 10
2305.5504971029741
 20
2383.6012487198491
 11
2305.5386541988892
 21
2383.5756855106051
  0
LINE
  8
_0-0_0
  6
CONTINUOUS
 62
    7
 10
2305.5386541988892
 20
2383.5756855106051
 11
2305.528390348682
 21
2383.5497436291712
  0
LINE
  8
_0-0_0
  6
CONTINUOUS
 62
    7
 10
2305.528390348682
 20
2383.5497436291712
 11
2305.5197055523522
 21
2383.523469877729
  0
LINE
  8
_0-0_0
  6
CONTINUOUS
 62
    7
 10
2305.5197055523522
 20
2383.523469877729
 11
2305.512599809902
 21
2383.4969110584611
  0
LINE
  8
_0-0_0
  6
CONTINUOUS
 62
    7
 10
2305.512599809902
 20
2383.4969110584611
 11
2305.5070731213291
 21
2383.4701139735448
  0
LINE
  8
_0-0_0
  6
CONTINUOUS
 62
    7
 10
2305.5070731213291
 20
2383.4701139735448
 11
2305.503125486634
 21
2383.4431254251622
  0
LINE
  8
_0-0_0
  6
CONTINUOUS
 62
    7
 10
2305.503125486634
 20
2383.4431254251622
 11
2305.5007569058171
 21
2383.415992215494
  0
LINE
  8
_0-0_0
  6
CONTINUOUS
 62
    7
 10
2305.5007569058171
 20
2383.415992215494
 11
2305.499967378878
 21
2383.3887611467221
  0
LINE
  8
_0-0_0
  6
CONTINUOUS
 62
    7
 10
2305.499967378878
 20
2383.3887611467221
 11
2305.5007569058171
 21
2383.361479021024
  0
LINE
  8
_0-0_0
  6
CONTINUOUS
 62
    7
 10
2305.5007569058171
 20
2383.361479021024
 11
2305.503125486634
 21
2383.3341926405842
  0
LINE
  8
_0-0_0
  6
CONTINUOUS
 62
    7
 10
2305.503125486634
 20
2383.3341926405842
 11
2305.5070731213291
 21
2383.3069488075798
  0
LINE
  8
_0-0_0
  6
CONTINUOUS
 62
    7
 10
2305.5070731213291
 20
2383.3069488075798
 11
2305.512599809902
 21
2383.2797943241931
  0
LINE
  8
_0-0_0
  6
CONTINUOUS
 62
    7
 10
2305.512599809902
 20
2383.2797943241931
 11
2305.5197055523531
 21
2383.2527759926052
  0
LINE
  8
_0-0_0
  6
CONTINUOUS
 62
    7
 10
2305.5197055523531
 20
2383.2527759926052
 11
2305.528390348682
 21
2383.225940614996
  0
LINE
  8
_0-0_0
  6
CONTINUOUS
 62
    7
 10
2305.528390348682
 20
2383.225940614996
 11
2305.5386541988878
 21
2383.199334993546
  0
LINE
  8
_0-0_0
  6
CONTINUOUS
 62
    7
 10
2305.5386541988878
 20
2383.199334993546
 11
2305.5504971029732
 21
2383.1730059304359
  0
LINE
  8
_0-0_0
  6
CONTINUOUS
 62
    7
 10
2305.5504971029732
 20
2383.1730059304359
 11
2305.5639190609359
 21
2383.1470002278479
  0
LINE
  8
_0-0_0
  6
CONTINUOUS
 62
    7
 10
2305.5639190609359
 20
2383.1470002278479
 11
2305.5789200727768
 21
2383.121364687961
  0
LINE
  8
_0-0_0
  6
CONTINUOUS
 62
    7
 10
2305.5789200727768
 20
2383.121364687961
 11
2305.595500138495
 21
2383.096146112955
  0
LINE
  8
_0-0_0
  6
CONTINUOUS
 62
    7
 10
2305.595500138495
 20
2383.096146112955
 11
2305.613659258092
 21
2383.071391305014
  0
LINE
  8
_0-0_0
  6
CONTINUOUS
 62
    7
 10
2305.330040806718
 20
2382.747894632384
 11
2305.330040806718
 21
2382.5812448313332
  0
LINE
  8
_0-0_0
  6
CONTINUOUS
 62
    7
 10
2304.665004437979
 20
2382.5812448313332
 11
2304.665004437979
 21
2382.806712209227
  0
LINE
  8
_0-0_0
  6
CONTINUOUS
 62
    7
 10
2305.330040806718
 20
2382.747894632384
 11
2305.290921020322
 21
2382.806712209227
  0
LINE
  8
_0-0_0
  6
CONTINUOUS
 62
    7
 10
2305.290921020322
 20
2382.806712209227
 11
2305.1784516344319
 21
2382.8655297860678
  0
LINE
  8
_0-0_0
  6
CONTINUOUS
 62
    7
 10
2305.1784516344319
 20
2382.8655297860678
 11
2305.1197719548381
 21
2382.9145444334358
  0
LINE
  8
_0-0_0
  6
CONTINUOUS
 62
    7
 10
2305.1197719548381
 20
2382.9145444334358
 11
2304.9486228893529
 21
2382.9145444334358
  0
LINE
  8
_0-0_0
  6
CONTINUOUS
 62
    7
 10
2304.9486228893529
 20
2382.9145444334358
 11
2304.8410434767629
 21
2382.8655297860678
  0
LINE
  8
_0-0_0
  6
CONTINUOUS
 62
    7
 10
2304.8410434767629
 20
2382.8655297860678
 11
2304.7872537704679
 21
2382.8655297860678
  0
LINE
  8
_0-0_0
  6
CONTINUOUS
 62
    7
 10
2304.7872537704679
 20
2382.8655297860678
 11
2304.6698944112791
 21
2382.806712209227
  0
LINE
  8
_0-0_0
  6
CONTINUOUS
 62
    7
 10
2303.9999680692399
 20
2384.9241449755259
 11
2303.9999680692399
 21
2384.747692245001
  0
LINE
  8
_0-0_0
  6
CONTINUOUS
 62
    7
 10
2303.9999680692399
 20
2384.747692245001
 11
2304.7187941442739
 21
2384.032078393428
  0
LINE
  8
_0-0_0
  6
CONTINUOUS
 62
    7
 10
2303.5109707392849
 20
2384.4732102197399
 11
2303.7212395911661
 21
2384.4143926428978
  0
LINE
  8
_0-0_0
  6
CONTINUOUS
 62
    7
 10
2303.7212395911661
 20
2384.4143926428978
 11
2304.3911659332039
 21
2383.698778791324
  0
LINE
  8
_0-0_0
  6
CONTINUOUS
 62
    7
 10
2306.5036343986112
 20
2382.3655803829138
 11
2306.322705386528
 21
2382.3655803829138
  0
LINE
  8
_0-0_0
  6
CONTINUOUS
 62
    7
 10
2306.322705386528
 20
2382.3655803829138
 11
2305.613659258092
 21
2383.0811942344872
  0
LINE
  8
_0-0_0
  6
CONTINUOUS
 62
    7
 10
2306.5623140782059
 20
2384.4143926428978
 11
2306.332485333126
 21
2384.4143926428978
  0
LINE
  8
_0-0_0
  6
CONTINUOUS
 62
    7
 10
2306.332485333126
 20
2384.4143926428978
 11
2305.613659258092
 21
2383.698778791324
  0
LINE
  8
_0-0_0
  6
CONTINUOUS
 62
    7
 10
2303.9510683362441
 20
2381.9146456271278
 11
2303.9510683362441
 21
2382.0812954281791
  0
LINE
  8
_0-0_0
  6
CONTINUOUS
 62
    7
 10
2303.9510683362441
 20
2382.0812954281791
 11
2304.6601144646802
 21
2382.806712209227
  0
LINE
  8
_0-0_0
  6
CONTINUOUS
 62
    7
 10
2306.0537568550521
 20
2384.8653273986838
 11
2306.0537568550521
 21
2384.6986775976329
  0
LINE
  8
_0-0_0
  6
CONTINUOUS
 62
    7
 10
2306.0537568550521
 20
2384.6986775976329
 11
2305.3349307800172
 21
2383.9732608165859
  0
LINE
  8
_0-0_0
  6
CONTINUOUS
 62
    7
 10
2303.5109707392849
 20
2382.3655803829138
 11
2303.6723398581712
 21
2382.3655803829138
  0
LINE
  8
_0-0_0
  6
CONTINUOUS
 62
    7
 10
2303.6723398581712
 20
2382.3655803829138
 11
2304.3911659332039
 21
2383.0811942344872
  0
LINE
  8
_0-0_0
  6
CONTINUOUS
 62
    7
 10
2306.0537568550521
 20
2381.8656309797589
 11
2306.0537568550521
 21
2382.0322807808111
  0
LINE
  8
_0-0_0
  6
CONTINUOUS
 62
    7
 10
2306.0537568550521
 20
2382.0322807808111
 11
2305.3349307800172
 21
2382.747894632384
  0
LINE
  8
_0-0_0
  6
CONTINUOUS
 62
    7
 10
2306.0537568550521
 20
2382.0322807808111
 11
2306.322705386528
 21
2382.3655803829138
  0
LINE
  8
_0-0_0
  6
CONTINUOUS
 62
    7
 10
2306.3275953598268
 20
2384.4143926428978
 11
2306.0586468283509
 21
2384.6986775976329
  0
LINE
  8
_0-0_0
  6
CONTINUOUS
 62
    7
 10
2303.6674498848711
 20
2382.3655803829138
 11
2303.9461783629449
 21
2382.0812954281791
  0
LINE
  8
_0-0_0
  6
CONTINUOUS
 62
    7
 10
2303.9999680692399
 20
2384.747692245001
 11
2303.731019537765
 21
2384.4143926428978
  0
LINE
  8
_0-0_0
  6
CONTINUOUS
 62
    7
 10
2275.0537568550521
 20
2381.8656309797589
 11
2275.5036343986112
 21
2382.3655803829138
  0
LINE
  8
_0-0_0
  6
CONTINUOUS
 62
    7
 10
2275.5036343986112
 20
2382.3655803829138
 11
2274.8434880031709
 21
2383.0811942344872
  0
LINE
  8
_0-0_0
  6
CONTINUOUS
 62
    7
 10
2274.8385980298722
 20
2383.698778791324
 11
2274.7310186172808
 21
2383.3654791892218
  0
LINE
  8
_0-0_0
  6
CONTINUOUS
 62
    7
 10
2274.7310186172808
 20
2383.3654791892218
 11
2274.8385980298722
 21
2383.071391305014
  0
LINE
  8
_0-0_0
  6
CONTINUOUS
 62
    7
 10
2274.8385980298722
 20
2383.698778791324
 11
2275.5574241049048
 21
2384.4143926428978
  0
LINE
  8
_0-0_0
  6
CONTINUOUS
 62
    7
 10
2275.5574241049048
 20
2384.4143926428978
 11
2275.048866881752
 21
2384.8653273986838
  0
LINE
  8
_0-0_0
  6
CONTINUOUS
 62
    7
 10
2275.048866881752
 20
2384.8653273986838
 11
2274.330040806718
 21
2384.1987281944789
  0
LINE
  8
_0-0_0
  6
CONTINUOUS
 62
    7
 10
2273.7236841175741
 20
2384.247742841847
 11
2274.0562023019429
 21
2384.0810930407961
  0
LINE
  8
_0-0_0
  6
CONTINUOUS
 62
    7
 10
2274.0562023019429
 20
2384.0810930407961
 11
2274.3349307800172
 21
2384.1987281944789
  0
LINE
  8
_0-0_0
  6
CONTINUOUS
 62
    7
 10
2273.7236841175741
 20
2384.247742841847
 11
2273.00485804254
 21
2384.9241449755259
  0
LINE
  8
_0-0_0
  6
CONTINUOUS
 62
    7
 10
2273.00485804254
 20
2384.9241449755259
 11
2272.5109707392849
 21
2384.4732102197399
  0
LINE
  8
_0-0_0
  6
CONTINUOUS
 62
    7
 10
2272.5109707392849
 20
2384.4732102197399
 11
2273.2249068410201
 21
2383.747793438693
  0
LINE
  8
_0-0_0
  6
CONTINUOUS
 62
    7
 10
2273.1760071080239
 20
2383.0811942344872
 11
2273.3471561735091
 21
2383.4144938365898
  0
LINE
  8
_0-0_0
  6
CONTINUOUS
 62
    7
 10
2273.3471561735091
 20
2383.4144938365898
 11
2273.2249068410201
 21
2383.747793438693
  0
LINE
  8
_0-0_0
  6
CONTINUOUS
 62
    7
 10
2273.1760071080239
 20
2383.0811942344872
 11
2272.515860712585
 21
2382.3655803829138
  0
LINE
  8
_0-0_0
  6
CONTINUOUS
 62
    7
 10
2272.515860712585
 20
2382.3655803829138
 11
2272.9559583095438
 21
2381.9146456271278
  0
LINE
  8
_0-0_0
  6
CONTINUOUS
 62
    7
 10
2272.9559583095438
 20
2381.9146456271278
 11
2273.665004437979
 21
2382.5812448313332
  0
LINE
  8
_0-0_0
  6
CONTINUOUS
 62
    7
 10
2274.330040806718
 20
2382.5812448313332
 11
2273.9975226223478
 21
2382.698879985016
  0
LINE
  8
_0-0_0
  6
CONTINUOUS
 62
    7
 10
2273.9975226223478
 20
2382.698879985016
 11
2273.6698944112791
 21
2382.5812448313332
  0
LINE
  8
_0-0_0
  6
CONTINUOUS
 62
    7
 10
2275.0537568550521
 20
2381.8656309797589
 11
2274.3349307800172
 21
2382.5812448313332
  0
LINE
  8
_0-0_0
  6
CONTINUOUS
 62
    7
 10
2273.3911659332039
 20
2383.0811942344872
 11
2273.180897081324
 21
2383.0811942344872
  0
LINE
  8
_0-0_0
  6
CONTINUOUS
 62
    7
 10
2273.2249068410201
 20
2383.747793438693
 11
2273.396055906504
 21
2383.698778791324
  0
LINE
  8
_0-0_0
  6
CONTINUOUS
 62
    7
 10
2273.3911659332039
 20
2383.0811942344872
 11
2273.4165496487699
 21
2383.1102059134969
  0
LINE
  8
_0-0_0
  6
CONTINUOUS
 62
    7
 10
2273.4165496487699
 20
2383.1102059134969
 11
2273.440099624348
 21
2383.138468757616
  0
LINE
  8
_0-0_0
  6
CONTINUOUS
 62
    7
 10
2273.440099624348
 20
2383.138468757616
 11
2273.4617649227171
 21
2383.1660508427431
  0
LINE
  8
_0-0_0
  6
CONTINUOUS
 62
    7
 10
2273.4617649227171
 20
2383.1660508427431
 11
2273.4814946066549
 21
2383.1930202447788
  0
LINE
  8
_0-0_0
  6
CONTINUOUS
 62
    7
 10
2273.4814946066549
 20
2383.1930202447788
 11
2273.499237738939
 21
2383.219445039621
  0
LINE
  8
_0-0_0
  6
CONTINUOUS
 62
    7
 10
2273.499237738939
 20
2383.219445039621
 11
2273.514943382349
 21
2383.2453933031702
  0
LINE
  8
_0-0_0
  6
CONTINUOUS
 62
    7
 10
2273.514943382349
 20
2383.2453933031702
 11
2273.5285605996628
 21
2383.2709331113251
  0
LINE
  8
_0-0_0
  6
CONTINUOUS
 62
    7
 10
2273.5285605996628
 20
2383.2709331113251
 11
2273.5400384536579
 21
2383.2961325399829
  0
LINE
  8
_0-0_0
  6
CONTINUOUS
 62
    7
 10
2273.5400384536579
 20
2383.2961325399829
 11
2273.5493260071121
 21
2383.3210596650438
  0
LINE
  8
_0-0_0
  6
CONTINUOUS
 62
    7
 10
2273.5493260071121
 20
2383.3210596650438
 11
2273.5563723228038
 21
2383.3457825624091
  0
LINE
  8
_0-0_0
  6
CONTINUOUS
 62
    7
 10
2273.5563723228038
 20
2383.3457825624091
 11
2273.5611264635122
 21
2383.370369307976
  0
LINE
  8
_0-0_0
  6
CONTINUOUS
 62
    7
 10
2273.5611264635122
 20
2383.370369307976
 11
2273.5635374920139
 21
2383.3948879776431
  0
LINE
  8
_0-0_0
  6
CONTINUOUS
 62
    7
 10
2273.5635374920139
 20
2383.3948879776431
 11
2273.5635544710881
 21
2383.4194066473101
  0
LINE
  8
_0-0_0
  6
CONTINUOUS
 62
    7
 10
2273.5635544710881
 20
2383.4194066473101
 11
2273.5611264635122
 21
2383.443993392877
  0
LINE
  8
_0-0_0
  6
CONTINUOUS
 62
    7
 10
2273.5611264635122
 20
2383.443993392877
 11
2273.5562025320651
 21
2383.468716290241
  0
LINE
  8
_0-0_0
  6
CONTINUOUS
 62
    7
 10
2273.5562025320651
 20
2383.468716290241
 11
2273.5487317395232
 21
2383.4936434153028
  0
LINE
  8
_0-0_0
  6
CONTINUOUS
 62
    7
 10
2273.5487317395232
 20
2383.4936434153028
 11
2273.5386631486672
 21
2383.518842843961
  0
LINE
  8
_0-0_0
  6
CONTINUOUS
 62
    7
 10
2273.5386631486672
 20
2383.518842843961
 11
2273.5259458222731
 21
2383.544382652115
  0
LINE
  8
_0-0_0
  6
CONTINUOUS
 62
    7
 10
2273.5259458222731
 20
2383.544382652115
 11
2273.5105288231211
 21
2383.5703309156638
  0
LINE
  8
_0-0_0
  6
CONTINUOUS
 62
    7
 10
2273.5105288231211
 20
2383.5703309156638
 11
2273.492361213986
 21
2383.5967557105068
  0
LINE
  8
_0-0_0
  6
CONTINUOUS
 62
    7
 10
2273.492361213986
 20
2383.5967557105068
 11
2273.4713920576501
 21
2383.6237251125431
  0
LINE
  8
_0-0_0
  6
CONTINUOUS
 62
    7
 10
2273.4713920576501
 20
2383.6237251125431
 11
2273.447570416889
 21
2383.651307197671
  0
LINE
  8
_0-0_0
  6
CONTINUOUS
 62
    7
 10
2273.447570416889
 20
2383.651307197671
 11
2273.4208453544811
 21
2383.6795700417888
  0
LINE
  8
_0-0_0
  6
CONTINUOUS
 62
    7
 10
2273.4208453544811
 20
2383.6795700417888
 11
2273.3911659332039
 21
2383.708581720799
  0
LINE
  8
_0-0_0
  6
CONTINUOUS
 62
    7
 10
2273.7236841175741
 20
2384.032078393428
 11
2273.7236841175741
 21
2384.2379399123729
  0
LINE
  8
_0-0_0
  6
CONTINUOUS
 62
    7
 10
2274.330040806718
 20
2384.1987281944789
 11
2274.330040806718
 21
2383.9732608165859
  0
LINE
  8
_0-0_0
  6
CONTINUOUS
 62
    7
 10
2273.7236841175741
 20
2384.032078393428
 11
2273.7454265292372
 21
2384.0051139552602
  0
LINE
  8
_0-0_0
  6
CONTINUOUS
 62
    7
 10
2273.7454265292372
 20
2384.0051139552602
 11
2273.7678353695519
 21
2383.980561956766
  0
LINE
  8
_0-0_0
  6
CONTINUOUS
 62
    7
 10
2273.7678353695519
 20
2383.980561956766
 11
2273.7908639460679
 21
2383.9583841052558
  0
LINE
  8
_0-0_0
  6
CONTINUOUS
 62
    7
 10
2273.7908639460679
 20
2383.9583841052558
 11
2273.8144655663291
 21
2383.9385421080342
  0
LINE
  8
_0-0_0
  6
CONTINUOUS
 62
    7
 10
2273.8144655663291
 20
2383.9385421080342
 11
2273.8385935378828
 21
2383.9209976724069
  0
LINE
  8
_0-0_0
  6
CONTINUOUS
 62
    7
 10
2273.8385935378828
 20
2383.9209976724069
 11
2273.8632011682771
 21
2383.905712505682
  0
LINE
  8
_0-0_0
  6
CONTINUOUS
 62
    7
 10
2273.8632011682771
 20
2383.905712505682
 11
2273.8882417650561
 21
2383.8926483151658
  0
LINE
  8
_0-0_0
  6
CONTINUOUS
 62
    7
 10
2273.8882417650561
 20
2383.8926483151658
 11
2273.913668635767
 21
2383.881766808166
  0
LINE
  8
_0-0_0
  6
CONTINUOUS
 62
    7
 10
2273.913668635767
 20
2383.881766808166
 11
2273.9394350879579
 21
2383.873029691988
  0
LINE
  8
_0-0_0
  6
CONTINUOUS
 62
    7
 10
2273.9394350879579
 20
2383.873029691988
 11
2273.9654944291742
 21
2383.8663986739389
  0
LINE
  8
_0-0_0
  6
CONTINUOUS
 62
    7
 10
2273.9654944291742
 20
2383.8663986739389
 11
2273.9917999669628
 21
2383.861835461325
  0
LINE
  8
_0-0_0
  6
CONTINUOUS
 62
    7
 10
2273.9917999669628
 20
2383.861835461325
 11
2274.0183050088708
 21
2383.8593017614548
  0
LINE
  8
_0-0_0
  6
CONTINUOUS
 62
    7
 10
2274.0183050088708
 20
2383.8593017614548
 11
2274.0449628624451
 21
2383.8587592816339
  0
LINE
  8
_0-0_0
  6
CONTINUOUS
 62
    7
 10
2274.0449628624451
 20
2383.8587592816339
 11
2274.0717268352309
 21
2383.8601697291688
  0
LINE
  8
_0-0_0
  6
CONTINUOUS
 62
    7
 10
2274.0717268352309
 20
2383.8601697291688
 11
2274.0985502347748
 21
2383.8634948113672
  0
LINE
  8
_0-0_0
  6
CONTINUOUS
 62
    7
 10
2274.0985502347748
 20
2383.8634948113672
 11
2274.1253863686252
 21
2383.8686962355341
  0
LINE
  8
_0-0_0
  6
CONTINUOUS
 62
    7
 10
2274.1253863686252
 20
2383.8686962355341
 11
2274.1521885443281
 21
2383.875735708978
  0
LINE
  8
_0-0_0
  6
CONTINUOUS
 62
    7
 10
2274.1521885443281
 20
2383.875735708978
 11
2274.1789100694291
 21
2383.8845749390039
  0
LINE
  8
_0-0_0
  6
CONTINUOUS
 62
    7
 10
2274.1789100694291
 20
2383.8845749390039
 11
2274.2055042514739
 21
2383.8951756329211
  0
LINE
  8
_0-0_0
  6
CONTINUOUS
 62
    7
 10
2274.2055042514739
 20
2383.8951756329211
 11
2274.2319243980128
 21
2383.9074994980342
  0
LINE
  8
_0-0_0
  6
CONTINUOUS
 62
    7
 10
2274.2319243980128
 20
2383.9074994980342
 11
2274.258123816589
 21
2383.9215082416499
  0
LINE
  8
_0-0_0
  6
CONTINUOUS
 62
    7
 10
2274.258123816589
 20
2383.9215082416499
 11
2274.2840558147518
 21
2383.9371635710768
  0
LINE
  8
_0-0_0
  6
CONTINUOUS
 62
    7
 10
2274.2840558147518
 20
2383.9371635710768
 11
2274.3096737000451
 21
2383.9544271936188
  0
LINE
  8
_0-0_0
  6
CONTINUOUS
 62
    7
 10
2274.3096737000451
 20
2383.9544271936188
 11
2274.3349307800172
 21
2383.9732608165859
  0
LINE
  8
_0-0_0
  6
CONTINUOUS
 62
    7
 10
2274.613659258092
 20
2383.698778791324
 11
2274.833708056572
 21
2383.698778791324
  0
LINE
  8
_0-0_0
  6
CONTINUOUS
 62
    7
 10
2274.8385980298722
 20
2383.0811942344872
 11
2274.6185492313921
 21
2383.0811942344872
  0
LINE
  8
_0-0_0
  6
CONTINUOUS
 62
    7
 10
2274.613659258092
 20
2383.698778791324
 11
2274.5955001384959
 21
2383.675198292643
  0
LINE
  8
_0-0_0
  6
CONTINUOUS
 62
    7
 10
2274.5955001384959
 20
2383.675198292643
 11
2274.5789200727768
 21
2383.6510519130479
  0
LINE
  8
_0-0_0
  6
CONTINUOUS
 62
    7
 10
2274.5789200727768
 20
2383.6510519130479
 11
2274.5639190609359
 21
2383.6263864547241
  0
LINE
  8
_0-0_0
  6
CONTINUOUS
 62
    7
 10
2274.5639190609359
 20
2383.6263864547241
 11
2274.5504971029732
 21
2383.6012487198491
  0
LINE
  8
_0-0_0
  6
CONTINUOUS
 62
    7
 10
2274.5504971029732
 20
2383.6012487198491
 11
2274.5386541988892
 21
2383.5756855106051
  0
LINE
  8
_0-0_0
  6
CONTINUOUS
 62
    7
 10
2274.5386541988892
 20
2383.5756855106051
 11
2274.528390348682
 21
2383.5497436291712
  0
LINE
  8
_0-0_0
  6
CONTINUOUS
 62
    7
 10
2274.528390348682
 20
2383.5497436291712
 11
2274.5197055523522
 21
2383.523469877729
  0
LINE
  8
_0-0_0
  6
CONTINUOUS
 62
    7
 10
2274.5197055523522
 20
2383.523469877729
 11
2274.512599809902
 21
2383.4969110584611
  0
LINE
  8
_0-0_0
  6
CONTINUOUS
 62
    7
 10
2274.512599809902
 20
2383.4969110584611
 11
2274.5070731213291
 21
2383.4701139735448
  0
LINE
  8
_0-0_0
  6
CONTINUOUS
 62
    7
 10
2274.5070731213291
 20
2383.4701139735448
 11
2274.503125486634
 21
2383.4431254251622
  0
LINE
  8
_0-0_0
  6
CONTINUOUS
 62
    7
 10
2274.503125486634
 20
2383.4431254251622
 11
2274.5007569058171
 21
2383.415992215494
  0
LINE
  8
_0-0_0
  6
CONTINUOUS
 62
    7
 10
2274.5007569058171
 20
2383.415992215494
 11
2274.499967378878
 21
2383.3887611467221
  0
LINE
  8
_0-0_0
  6
CONTINUOUS
 62
    7
 10
2274.499967378878
 20
2383.3887611467221
 11
2274.5007569058171
 21
2383.361479021024
  0
LINE
  8
_0-0_0
  6
CONTINUOUS
 62
    7
 10
2274.5007569058171
 20
2383.361479021024
 11
2274.503125486634
 21
2383.3341926405842
  0
LINE
  8
_0-0_0
  6
CONTINUOUS
 62
    7
 10
2274.503125486634
 20
2383.3341926405842
 11
2274.5070731213291
 21
2383.3069488075798
  0
LINE
  8
_0-0_0
  6
CONTINUOUS
 62
    7
 10
2274.5070731213291
 20
2383.3069488075798
 11
2274.512599809902
 21
2383.2797943241931
  0
LINE
  8
_0-0_0
  6
CONTINUOUS
 62
    7
 10
2274.512599809902
 20
2383.2797943241931
 11
2274.5197055523531
 21
2383.2527759926052
  0
LINE
  8
_0-0_0
  6
CONTINUOUS
 62
    7
 10
2274.5197055523531
 20
2383.2527759926052
 11
2274.528390348682
 21
2383.225940614996
  0
LINE
  8
_0-0_0
  6
CONTINUOUS
 62
    7
 10
2274.528390348682
 20
2383.225940614996
 11
2274.5386541988878
 21
2383.199334993546
  0
LINE
  8
_0-0_0
  6
CONTINUOUS
 62
    7
 10
2274.5386541988878
 20
2383.199334993546
 11
2274.5504971029732
 21
2383.1730059304359
  0
LINE
  8
_0-0_0
  6
CONTINUOUS
 62
    7
 10
2274.5504971029732
 20
2383.1730059304359
 11
2274.5639190609359
 21
2383.1470002278479
  0
LINE
  8
_0-0_0
  6
CONTINUOUS
 62
    7
 10
2274.5639190609359
 20
2383.1470002278479
 11
2274.5789200727768
 21
2383.121364687961
  0
LINE
  8
_0-0_0
  6
CONTINUOUS
 62
    7
 10
2274.5789200727768
 20
2383.121364687961
 11
2274.595500138495
 21
2383.096146112955
  0
LINE
  8
_0-0_0
  6
CONTINUOUS
 62
    7
 10
2274.595500138495
 20
2383.096146112955
 11
2274.613659258092
 21
2383.071391305014
  0
LINE
  8
_0-0_0
  6
CONTINUOUS
 62
    7
 10
2274.330040806718
 20
2382.747894632384
 11
2274.330040806718
 21
2382.5812448313332
  0
LINE
  8
_0-0_0
  6
CONTINUOUS
 62
    7
 10
2273.665004437979
 20
2382.5812448313332
 11
2273.665004437979
 21
2382.806712209227
  0
LINE
  8
_0-0_0
  6
CONTINUOUS
 62
    7
 10
2274.330040806718
 20
2382.747894632384
 11
2274.290921020322
 21
2382.806712209227
  0
LINE
  8
_0-0_0
  6
CONTINUOUS
 62
    7
 10
2274.290921020322
 20
2382.806712209227
 11
2274.1784516344319
 21
2382.8655297860678
  0
LINE
  8
_0-0_0
  6
CONTINUOUS
 62
    7
 10
2274.1784516344319
 20
2382.8655297860678
 11
2274.1197719548381
 21
2382.9145444334358
  0
LINE
  8
_0-0_0
  6
CONTINUOUS
 62
    7
 10
2274.1197719548381
 20
2382.9145444334358
 11
2273.9486228893529
 21
2382.9145444334358
  0
LINE
  8
_0-0_0
  6
CONTINUOUS
 62
    7
 10
2273.9486228893529
 20
2382.9145444334358
 11
2273.8410434767629
 21
2382.8655297860678
  0
LINE
  8
_0-0_0
  6
CONTINUOUS
 62
    7
 10
2273.8410434767629
 20
2382.8655297860678
 11
2273.7872537704679
 21
2382.8655297860678
  0
LINE
  8
_0-0_0
  6
CONTINUOUS
 62
    7
 10
2273.7872537704679
 20
2382.8655297860678
 11
2273.6698944112791
 21
2382.806712209227
  0
LINE
  8
_0-0_0
  6
CONTINUOUS
 62
    7
 10
2272.9999680692399
 20
2384.9241449755259
 11
2272.9999680692399
 21
2384.747692245001
  0
LINE
  8
_0-0_0
  6
CONTINUOUS
 62
    7
 10
2272.9999680692399
 20
2384.747692245001
 11
2273.7187941442739
 21
2384.032078393428
  0
LINE
  8
_0-0_0
  6
CONTINUOUS
 62
    7
 10
2272.5109707392849
 20
2384.4732102197399
 11
2272.7212395911661
 21
2384.4143926428978
  0
LINE
  8
_0-0_0
  6
CONTINUOUS
 62
    7
 10
2272.7212395911661
 20
2384.4143926428978
 11
2273.3911659332039
 21
2383.698778791324
  0
LINE
  8
_0-0_0
  6
CONTINUOUS
 62
    7
 10
2275.5036343986112
 20
2382.3655803829138
 11
2275.322705386528
 21
2382.3655803829138
  0
LINE
  8
_0-0_0
  6
CONTINUOUS
 62
    7
 10
2275.322705386528
 20
2382.3655803829138
 11
2274.613659258092
 21
2383.0811942344872
  0
LINE
  8
_0-0_0
  6
CONTINUOUS
 62
    7
 10
2275.5623140782059
 20
2384.4143926428978
 11
2275.332485333126
 21
2384.4143926428978
  0
LINE
  8
_0-0_0
  6
CONTINUOUS
 62
    7
 10
2275.332485333126
 20
2384.4143926428978
 11
2274.613659258092
 21
2383.698778791324
  0
LINE
  8
_0-0_0
  6
CONTINUOUS
 62
    7
 10
2272.9510683362441
 20
2381.9146456271278
 11
2272.9510683362441
 21
2382.0812954281791
  0
LINE
  8
_0-0_0
  6
CONTINUOUS
 62
    7
 10
2272.9510683362441
 20
2382.0812954281791
 11
2273.6601144646802
 21
2382.806712209227
  0
LINE
  8
_0-0_0
  6
CONTINUOUS
 62
    7
 10
2275.0537568550521
 20
2384.8653273986838
 11
2275.0537568550521
 21
2384.6986775976329
  0
LINE
  8
_0-0_0
  6
CONTINUOUS
 62
    7
 10
2275.0537568550521
 20
2384.6986775976329
 11
2274.3349307800172
 21
2383.9732608165859
  0
LINE
  8
_0-0_0
  6
CONTINUOUS
 62
    7
 10
2272.5109707392849
 20
2382.3655803829138
 11
2272.6723398581712
 21
2382.3655803829138
  0
LINE
  8
_0-0_0
  6
CONTINUOUS
 62
    7
 10
2272.6723398581712
 20
2382.3655803829138
 11
2273.3911659332039
 21
2383.0811942344872
  0
LINE
  8
_0-0_0
  6
CONTINUOUS
 62
    7
 10
2275.0537568550521
 20
2381.8656309797589
 11
2275.0537568550521
 21
2382.0322807808111
  0
LINE
  8
_0-0_0
  6
CONTINUOUS
 62
    7
 10
2275.0537568550521
 20
2382.0322807808111
 11
2274.3349307800172
 21
2382.747894632384
  0
LINE
  8
_0-0_0
  6
CONTINUOUS
 62
    7
 10
2275.0537568550521
 20
2382.0322807808111
 11
2275.322705386528
 21
2382.3655803829138
  0
LINE
  8
_0-0_0
  6
CONTINUOUS
 62
    7
 10
2275.3275953598268
 20
2384.4143926428978
 11
2275.0586468283509
 21
2384.6986775976329
  0
LINE
  8
_0-0_0
  6
CONTINUOUS
 62
    7
 10
2272.6674498848711
 20
2382.3655803829138
 11
2272.9461783629449
 21
2382.0812954281791
  0
LINE
  8
_0-0_0
  6
CONTINUOUS
 62
    7
 10
2272.9999680692399
 20
2384.747692245001
 11
2272.731019537765
 21
2384.4143926428978
  0
CIRCLE
  8
_0-0_0
  6
CONTINUOUS
 62
    7
 10
2304.9999676089992
 20
2383.3887575524218
 40
3
  0
CIRCLE
  8
_0-0_0
  6
CONTINUOUS
 62
    7
 10
2273.9999676089992
 20
2383.3887575524218
 40
3
  0
CIRCLE
  8
_0-0_0
  6
CONTINUOUS
 62
    7
 10
2273.9999676089992
 20
1608.3887575524222
 40
3
  0
CIRCLE
  8
_0-0_0
  6
CONTINUOUS
 62
    7
 10
2304.9999676089992
 20
1608.3887575524222
 40
3
  0
LINE
  8
_0-2_用紙枠
  6
CONTINUOUS
 62
    7
 10
2.5
 20
2.5
 11
5942.5
 21
2.5
  0
LINE
  8
_0-2_用紙枠
  6
CONTINUOUS
 62
    7
 10
5942.5
 20
2.5
 11
5942.5
 21
4202.5
  0
LINE
  8
_0-2_用紙枠
  6
CONTINUOUS
 62
    7
 10
5942.5
 20
4202.5
 11
2.5
 21
4202.5
  0
LINE
  8
_0-2_用紙枠
  6
CONTINUOUS
 62
    7
 10
2.5
 20
4202.5
 11
2.5
 21
2.5
  0
LINE
  8
_0-0_0
  6
CONTINUOUS
 62
    7
 10
2263.9999676089992
 20
2395.0137575524218
 11
2263.9999676089992
 21
2595.2487575524219
  0
LINE
  8
_0-0_0
  6
CONTINUOUS
 62
    7
 10
2309.9999906435178
 20
2395.0137575524218
 11
2309.9999906435178
 21
2595.2487575524219
  0
LINE
  8
_0-0_0
  6
CONTINUOUS
 62
    7
 10
2193.9999676089992
 20
2594.8887575524218
 11
2123.9999676089992
 21
2594.8887575524218
  0
LINE
  8
_0-0_0
  6
CONTINUOUS
 62
    7
 10
2379.9999906435178
 20
2594.8887575524218
 11
2582.6704451889718
 21
2594.8887575524218
  0
LINE
  8
_0-0_0
  6
CONTINUOUS
 62
    7
 10
2263.9999676089992
 20
2594.8887575524218
 11
2309.9999906435178
 21
2594.8887575524218
  0
LINE
  8
_0-0_0
  6
CONTINUOUS
 62
    7
 10
1964.124967608999
 20
2394.8887575524218
 11
2064.3599676089989
 21
2394.8887575524218
  0
LINE
  8
_0-0_0
  6
CONTINUOUS
 62
    7
 10
1964.124967608999
 20
1596.888757552422
 11
2064.3599676089989
 21
1596.888757552422
  0
LINE
  8
_0-0_0
  6
CONTINUOUS
 62
    7
 10
2063.9999676089992
 20
2324.8887575524218
 11
2063.9999676089992
 21
1666.888757552422
  0
LINE
  8
_0-0_0
  6
CONTINUOUS
 62
    7
 10
1165.0000093564818
 20
2395.0137575524218
 11
1165.0000093564818
 21
2595.2487575524219
  0
LINE
  8
_0-0_0
  6
CONTINUOUS
 62
    7
 10
1963.9999676089992
 20
2395.0137575524218
 11
1963.9999676089992
 21
2595.2487575524219
  0
LINE
  8
_0-0_0
  6
CONTINUOUS
 62
    7
 10
1235.0000093564818
 20
2594.8887575524218
 11
1893.9999676089992
 21
2594.8887575524218
  0
LINE
  8
_0-0_0
  6
CONTINUOUS
 62
    7
 10
3657.5
 20
2545.8887575524218
 11
5157.5
 21
2545.8887575524218
  0
LINE
  8
_0-0_0
  6
CONTINUOUS
 62
    7
 10
3657.5
 20
2445.8887575524218
 11
5157.5
 21
2445.8887575524218
  0
LINE
  8
_0-0_0
  6
CONTINUOUS
 62
    7
 10
3657.5
 20
2345.8887575524218
 11
5157.5
 21
2345.8887575524218
  0
LINE
  8
_0-0_0
  6
CONTINUOUS
 62
    7
 10
3657.5
 20
2245.8887575524218
 11
5157.5
 21
2245.8887575524218
  0
LINE
  8
_0-0_0
  6
CONTINUOUS
 62
    7
 10
3657.5
 20
2145.8887575524218
 11
5157.5
 21
2145.8887575524218
  0
LINE
  8
_0-0_0
  6
CONTINUOUS
 62
    7
 10
3657.5
 20
2045.8887575524222
 11
5157.5
 21
2045.8887575524222
  0
LINE
  8
_0-0_0
  6
CONTINUOUS
 62
    7
 10
3657.5
 20
1945.8887575524222
 11
5157.5
 21
1945.8887575524222
  0
LINE
  8
_0-0_0
  6
CONTINUOUS
 62
    7
 10
3657.5
 20
1845.8887575524222
 11
5157.5
 21
1845.8887575524222
  0
LINE
  8
_0-0_0
  6
CONTINUOUS
 62
    7
 10
3657.5
 20
1745.8887575524222
 11
5157.5
 21
1745.8887575524222
  0
LINE
  8
_0-0_0
  6
CONTINUOUS
 62
    7
 10
3657.5
 20
1645.8887575524222
 11
5157.5
 21
1645.8887575524222
  0
LINE
  8
_0-0_0
  6
CONTINUOUS
 62
    7
 10
3657.5
 20
1545.8887575524222
 11
5157.5
 21
1545.8887575524222
  0
LINE
  8
_0-0_0
  6
CONTINUOUS
 62
    7
 10
3657.5
 20
1445.8887575524222
 11
5157.5
 21
1445.8887575524222
  0
LINE
  8
_0-0_0
  6
CONTINUOUS
 62
    7
 10
3657.5
 20
2545.8887575524218
 11
3657.5
 21
1445.8887575524222
  0
LINE
  8
_0-0_0
  6
CONTINUOUS
 62
    7
 10
4357.5
 20
2545.8887575524218
 11
4357.5
 21
1445.8887575524222
  0
LINE
  8
_0-0_0
  6
CONTINUOUS
 62
    7
 10
5157.5
 20
2545.8887575524218
 11
5157.5
 21
1445.8887575524222
  0
TEXT
  8
_0-0_0
 62
    7
 10
3660.5
 20
1475.547848461513
 40
40
 41
1
 50
0
  1
  質量
  0
TEXT
  8
_0-0_0
 62
    7
 10
3660.5
 20
1575.547848461513
 40
40
 41
1
 50
0
  1
  外形寸法（WxHxD）
  0
TEXT
  8
_0-0_0
 62
    7
 10
3660.5
 20
1675.4342120978772
 40
40
 41
1
 50
0
  1
  最大システム電圧
  0
TEXT
  8
_0-0_0
 62
    7
 10
3660.5
 20
1774.752393916059
 40
40
 41
1
 50
0
  1
  公称短絡電流
  0
TEXT
  8
_0-0_0
 62
    7
 10
3660.5
 20
1874.9796666433308
 40
40
 41
1
 50
0
  1
  公称開放電圧
  0
TEXT
  8
_0-0_0
 62
    7
 10
3660.5
 20
1975.093303006968
 40
40
 41
1
 50
0
  1
  公称最大出力動作電流
  0
TEXT
  8
_0-0_0
 62
    7
 10
3660.5
 20
2075.0933030069682
 40
40
 41
1
 50
0
  1
  公称最大出力動作電圧
  0
TEXT
  8
_0-0_0
 62
    7
 10
3660.5
 20
2174.9796666433308
 40
40
 41
1
 50
0
  1
  公称最大出力
  0
TEXT
  8
_0-0_0
 62
    7
 10
3660.5
 20
2274.7523939160592
 40
40
 41
1
 50
0
  1
  最大モジュール変換効率
  0
TEXT
  8
_0-0_0
 62
    7
 10
3660.5
 20
2375.4342120978772
 40
40
 41
1
 50
0
  1
  セル種類
  0
TEXT
  8
_0-0_0
 62
    7
 10
3660.5
 20
2474.4114848251488
 40
40
 41
1
 50
0
  1
  型式
  0
TEXT
  8
_0-0_0
 62
    7
 10
1487.539761210013
 20
2614.8887575524218
 40
70
 41
1
 50
0
  1
799
  0
LINE
  8
_0-0_0
  6
CONTINUOUS
 62
    7
 10
1893.9999676089992
 20
2606.5554242190892
 11
1963.9999676089992
 21
2594.8887575524218
  0
LINE
  8
_0-0_0
  6
CONTINUOUS
 62
    7
 10
1893.9999676089992
 20
2583.2220908857562
 11
1963.9999676089992
 21
2594.8887575524218
  0
LINE
  8
_0-0_0
  6
CONTINUOUS
 62
    7
 10
1963.9999676089992
 20
2594.8887575524218
 11
1893.9999676089992
 21
2594.8887575524218
  0
LINE
  8
_0-0_0
  6
CONTINUOUS
 62
    7
 10
1235.0000093564818
 20
2583.2220908857562
 11
1165.0000093564818
 21
2594.8887575524218
  0
LINE
  8
_0-0_0
  6
CONTINUOUS
 62
    7
 10
1235.0000093564818
 20
2606.5554242190892
 11
1165.0000093564818
 21
2594.8887575524218
  0
LINE
  8
_0-0_0
  6
CONTINUOUS
 62
    7
 10
1165.0000093564818
 20
2594.8887575524218
 11
1235.0000093564818
 21
2594.8887575524218
  0
TEXT
  8
_0-0_0
 62
    7
 10
2043.9999676089992
 20
1918.530803006968
 40
70
 41
1
 50
90
  1
798
  0
LINE
  8
_0-0_0
  6
CONTINUOUS
 62
    7
 10
2075.6666342756662
 20
1666.888757552422
 11
2063.9999676089992
 21
1596.888757552422
  0
LINE
  8
_0-0_0
  6
CONTINUOUS
 62
    7
 10
2052.3333009423332
 20
1666.888757552422
 11
2063.9999676089992
 21
1596.888757552422
  0
LINE
  8
_0-0_0
  6
CONTINUOUS
 62
    7
 10
2063.9999676089992
 20
1596.888757552422
 11
2063.9999676089992
 21
1666.888757552422
  0
LINE
  8
_0-0_0
  6
CONTINUOUS
 62
    7
 10
2052.3333009423332
 20
2324.8887575524218
 11
2063.9999676089992
 21
2394.8887575524218
  0
LINE
  8
_0-0_0
  6
CONTINUOUS
 62
    7
 10
2075.6666342756662
 20
2324.8887575524218
 11
2063.9999676089992
 21
2394.8887575524218
  0
LINE
  8
_0-0_0
  6
CONTINUOUS
 62
    7
 10
2063.9999676089992
 20
2394.8887575524218
 11
2063.9999676089992
 21
2324.8887575524218
  0
TEXT
  8
_0-0_0
 62
    7
 10
2466.4204451889718
 20
2614.8887575524218
 40
70
 41
1
 50
0
  1
46
  0
LINE
  8
_0-0_0
  6
CONTINUOUS
 62
    7
 10
2379.9999906435178
 20
2583.2220908857562
 11
2309.9999906435178
 21
2594.8887575524218
  0
LINE
  8
_0-0_0
  6
CONTINUOUS
 62
    7
 10
2379.9999906435178
 20
2606.5554242190892
 11
2309.9999906435178
 21
2594.8887575524218
  0
LINE
  8
_0-0_0
  6
CONTINUOUS
 62
    7
 10
2309.9999906435178
 20
2594.8887575524218
 11
2379.9999906435178
 21
2594.8887575524218
  0
LINE
  8
_0-0_0
  6
CONTINUOUS
 62
    7
 10
2193.9999676089992
 20
2606.5554242190892
 11
2263.9999676089992
 21
2594.8887575524218
  0
LINE
  8
_0-0_0
  6
CONTINUOUS
 62
    7
 10
2193.9999676089992
 20
2583.2220908857562
 11
2263.9999676089992
 21
2594.8887575524218
  0
LINE
  8
_0-0_0
  6
CONTINUOUS
 62
    7
 10
2263.9999676089992
 20
2594.8887575524218
 11
2193.9999676089992
 21
2594.8887575524218
  0
LINE
  8
_0-3_図面枠
  6
CONTINUOUS
 62
    7
 10
5742.5
 20
202.5
 11
5742.5
 21
4002.5
  0
LINE
  8
_0-3_図面枠
  6
CONTINUOUS
 62
    7
 10
5742.5
 20
4002.5
 11
402.5
 21
4002.5
  0
LINE
  8
_0-3_図面枠
  6
CONTINUOUS
 62
    7
 10
402.5
 20
4002.5
 11
402.5
 21
202.5
  0
LINE
  8
_0-3_図面枠
  6
CONTINUOUS
 62
    7
 10
402.5
 20
202.5
 11
5742.5
 21
202.5
  0
TEXT
  8
_0-0_0
 62
    7
 10
4607.5
 20
2475.8887575524218
 40
40
 41
1
 50
0
  1
SPR-125NE-WHT-J
  0
TEXT
  8
_0-0_0
 62
    7
 10
4597.5
 20
2374.7523939160578
 40
40
 41
1
 50
0
  1
シリコン単結晶系
  0
TEXT
  8
_0-0_0
 62
    7
 10
4707.5
 20
2275.8887575524218
 40
40
 41
1
 50
0
  1
19.6%
  0
TEXT
  8
_0-0_0
 62
    7
 10
4717.5
 20
2175.8887575524218
 40
40
 41
1
 50
0
  1
125W
  0
TEXT
  8
_0-0_0
 62
    7
 10
4707.5
 20
2075.8887575524218
 40
40
 41
1
 50
0
  1
20.3V
  0
TEXT
  8
_0-0_0
 62
    7
 10
4707.5
 20
1975.8887575524222
 40
40
 41
1
 50
0
  1
6.17A
  0
TEXT
  8
_0-0_0
 62
    7
 10
4707.5
 20
1875.8887575524222
 40
40
 41
1
 50
0
  1
24.4V
  0
TEXT
  8
_0-0_0
 62
    7
 10
4707.5
 20
1775.8887575524222
 40
40
 41
1
 50
0
  1
6.56A
  0
TEXT
  8
_0-0_0
 62
    7
 10
4717.5
 20
1675.8887575524222
 40
40
 41
1
 50
0
  1
600V
  0
TEXT
  8
_0-0_0
 62
    7
 10
4617.5
 20
1575.8887575524222
 40
40
 41
1
 50
0
  1
799x798x46ｍｍ
  0
TEXT
  8
_0-0_0
 62
    7
 10
4707.5
 20
1476.2296666433313
 40
40
 41
1
 50
0
  1
7.7㎏
  0
ENDSEC
  0
EOF
