  0
SECTION
  2
HEADER
  9
$ACADVER
  1
AC1009
  9
$DWGCODEPAGE
  3
ansi_932
  9
$INSBASE
 10
0.0
 20
0.0
 30
0.0
  9
$EXTMIN
 10
0.0
 20
0.0
 30
0.0
  9
$EXTMAX
 10
2970.0
 20
2100.0
 30
0.0
  9
$LIMMIN
 10
109.6511881510417
 20
82.19722222222221
  9
$LIMMAX
 10
147.8903700086805
 20
96.5028089735243
  9
$ORTHOMODE
 70
     1
  9
$REGENMODE
 70
     1
  9
$FILLMODE
 70
     1
  9
$QTEXTMODE
 70
     0
  9
$MIRRTEXT
 70
     1
  9
$DRAGMODE
 70
     2
  9
$LTSCALE
 40
1.0
  9
$OSMODE
 70
   511
  9
$ATTMODE
 70
     1
  9
$TEXTSIZE
 40
0.0
  9
$TRACEWID
 40
0.05
  9
$TEXTSTYLE
  7
STANDARD
  9
$CLAYER
  8
0
  9
$CELTYPE
  6
CONTINUOUS
  9
$CECOLOR
 62
   256
  9
$DIMSCALE
 40
1.0
  9
$DIMASZ
 40
35.0
  9
$DIMEXO
 40
0.0625
  9
$DIMDLI
 40
10.0
  9
$DIMRND
 40
0.0
  9
$DIMDLE
 40
0.0
  9
$DIMEXE
 40
0.18
  9
$DIMTP
 40
0.0
  9
$DIMTM
 40
0.0
  9
$DIMTXT
 40
35.0
  9
$DIMCEN
 40
0.09
  9
$DIMTSZ
 40
0.0
  9
$DIMTOL
 70
     0
  9
$DIMLIM
 70
     0
  9
$DIMTIH
 70
     0
  9
$DIMTOH
 70
     0
  9
$DIMSE1
 70
     0
  9
$DIMSE2
 70
     0
  9
$DIMTAD
 70
     3
  9
$DIMZIN
 70
     0
  9
$DIMBLK
  1
OPEN
  9
$DIMASO
 70
     1
  9
$DIMSHO
 70
     1
  9
$DIMPOST
  1

  9
$DIMAPOST
  1

  9
$DIMALT
 70
     0
  9
$DIMALTD
 70
     2
  9
$DIMALTF
 40
25.4
  9
$DIMLFAC
 40
1.0
  9
$DIMTOFL
 70
     0
  9
$DIMTVP
 40
0.0
  9
$DIMTIX
 70
     0
  9
$DIMSOXD
 70
     0
  9
$DIMSAH
 70
     0
  9
$DIMBLK1
  1

  9
$DIMBLK2
  1

  9
$DIMSTYLE
  2
STANDARD
  9
$DIMCLRD
 70
     0
  9
$DIMCLRE
 70
     0
  9
$DIMCLRT
 70
     0
  9
$DIMTFAC
 40
1.0
  9
$DIMGAP
 40
10.0
  9
$LUNITS
 70
     2
  9
$LUPREC
 70
     4
  9
$SKETCHINC
 40
0.1
  9
$FILLETRAD
 40
100.0
  9
$AUNITS
 70
     0
  9
$AUPREC
 70
     0
  9
$MENU
  1
acad
  9
$ELEVATION
 40
0.0
  9
$PELEVATION
 40
0.0
  9
$THICKNESS
 40
0.0
  9
$LIMCHECK
 70
     0
  9
$CHAMFERA
 40
0.0
  9
$CHAMFERB
 40
0.0
  9
$SKPOLY
 70
     0
  9
$TDCREATE
 40
2456743.597399803
  9
$TDUPDATE
 40
2456794.694394884
  9
$TDINDWG
 40
0.5828364815
  9
$TDUSRTIMER
 40
2456794.319213889
  9
$USRTIMER
 70
     1
  9
$ANGBASE
 50
0.0
  9
$ANGDIR
 70
     0
  9
$PDMODE
 70
     1
  9
$PDSIZE
 40
0.0
  9
$PLINEWID
 40
0.0
  9
$COORDS
 70
     1
  9
$SPLFRAME
 70
     0
  9
$SPLINETYPE
 70
     6
  9
$SPLINESEGS
 70
     8
  9
$ATTDIA
 70
     0
  9
$ATTREQ
 70
     1
  9
$HANDLING
 70
     1
  9
$HANDSEED
  5
7292
  9
$SURFTAB1
 70
     6
  9
$SURFTAB2
 70
     6
  9
$SURFTYPE
 70
     6
  9
$SURFU
 70
     6
  9
$SURFV
 70
     6
  9
$UCSNAME
  2

  9
$UCSORG
 10
0.0
 20
0.0
 30
0.0
  9
$UCSXDIR
 10
1.0
 20
0.0
 30
0.0
  9
$UCSYDIR
 10
0.0
 20
1.0
 30
0.0
  9
$PUCSNAME
  2

  9
$PUCSORG
 10
0.0
 20
0.0
 30
0.0
  9
$PUCSXDIR
 10
1.0
 20
0.0
 30
0.0
  9
$PUCSYDIR
 10
0.0
 20
1.0
 30
0.0
  9
$USERI1
 70
     0
  9
$USERI2
 70
     0
  9
$USERI3
 70
     0
  9
$USERI4
 70
     0
  9
$USERI5
 70
     0
  9
$USERR1
 40
0.0
  9
$USERR2
 40
0.0
  9
$USERR3
 40
0.0
  9
$USERR4
 40
0.0
  9
$USERR5
 40
0.0
  9
$WORLDVIEW
 70
     1
  9
$SHADEDGE
 70
     3
  9
$SHADEDIF
 70
    70
  9
$TILEMODE
 70
     1
  9
$MAXACTVP
 70
    16
  9
$PLIMCHECK
 70
     0
  9
$PEXTMIN
 10
1.000000000000000E+20
 20
1.000000000000000E+20
 30
1.000000000000000E+20
  9
$PEXTMAX
 10
-1.000000000000000E+20
 20
-1.000000000000000E+20
 30
-1.000000000000000E+20
  9
$PLIMMIN
 10
-0.0000000000000231
 20
0.0000000000000053
  9
$PLIMMAX
 10
420.0
 20
297.0
  9
$UNITMODE
 70
     0
  9
$VISRETAIN
 70
     0
  9
$PLINEGEN
 70
     1
  9
$PSLTSCALE
 70
     0
  0
ENDSEC
  0
SECTION
  2
TABLES
  0
TABLE
  2
VPORT
 70
     1
  0
VPORT
  2
*ACTIVE
 70
     0
 10
0.0
 20
0.0
 11
1.0
 21
1.0
 12
1916.412320767537
 22
1050.000009779186
 13
0.0
 23
0.0
 14
1.0
 24
1.0
 15
0.0
 25
0.0
 16
0.0
 26
0.0
 36
1.0
 17
0.0
 27
0.0
 37
0.0
 40
2115.574288855355
 41
1.789473684210526
 42
50.0
 43
0.0
 44
0.0
 50
0.0
 51
0.0
 71
    16
 72
   100
 73
     1
 74
     1
 75
     0
 76
     0
 77
     0
 78
     0
  0
ENDTAB
  0
TABLE
  2
LTYPE
 70
     1
  0
LTYPE
  2
CONTINUOUS
 70
     0
  3
Solid line
 72
    65
 73
     0
 40
0.0
  0
ENDTAB
  0
TABLE
  2
LAYER
 70
     4
  0
LAYER
  2
0
 70
     0
 62
     7
  6
CONTINUOUS
  0
LAYER
  2
DEFPOINTS
 70
     0
 62
     7
  6
CONTINUOUS
  0
LAYER
  2
用紙枠
 70
     0
 62
     7
  6
CONTINUOUS
  0
LAYER
  2
図面枠
 70
     0
 62
     7
  6
CONTINUOUS
  0
ENDTAB
  0
TABLE
  2
STYLE
 70
     2
  0
STYLE
  2
STANDARD
 70
     0
 40
0.0
 41
1.0
 50
0.0
 71
     0
 42
0.0
  3

  4

  0
STYLE
  2
スタイル
 70
     0
 40
2.5
 41
1.0
 50
0.0
 71
     0
 42
2.5
  3

  4

  0
ENDTAB
  0
TABLE
  2
VIEW
 70
     0
  0
ENDTAB
  0
TABLE
  2
UCS
 70
     0
  0
ENDTAB
  0
TABLE
  2
APPID
 70
    21
  0
APPID
  2
ACAD
 70
     0
  0
APPID
  2
ACAD_EXEMPT_FROM_CAD_STAND
 70
     0
  0
APPID
  2
ACAD_DSTYLE_DIMJAG
 70
     0
  0
APPID
  2
ACAD_DSTYLE_DIMTALN
 70
     0
  0
APPID
  2
ACAD_NAV_VCDISPLAY
 70
     0
  0
APPID
  2
ACAD_PSEXT
 70
     0
  0
APPID
  2
ACADANNOTATIVE
 70
     0
  0
APPID
  2
ACAECLAYERSTANDARD
 70
     0
  0
APPID
  2
ACCMTRANSPARENCY
 70
     0
  0
APPID
  2
ACADANNOAV
 70
     0
  0
APPID
  2
ACADANNOPO
 70
     0
  0
APPID
  2
ACAD_MLEADERVER
 70
     0
  0
APPID
  2
ACADSTRINGINFO
 70
     0
  0
APPID
  2
ACAD_DSTYLE_DIMBREAK
 70
     0
  0
APPID
  2
PLOTTRANSPARENCY
 70
     0
  0
APPID
  2
ACDBDYNAMICBLOCKGUID
 70
     0
  0
APPID
  2
ACAUTHENVIRON
 70
     0
  0
APPID
  2
ACLAYERTOOLS
 70
     0
  0
APPID
  2
ACDBDYNAMICBLOCKTRUENAME
 70
     0
  0
APPID
  2
GRADIENTCOLOR1ACI
 70
     0
  0
APPID
  2
GRADIENTCOLOR2ACI
 70
     0
  0
ENDTAB
  0
TABLE
  2
DIMSTYLE
 70
     1
  0
DIMSTYLE
  2
STANDARD
 70
     0
  3

  4

  5
OPEN
  6

  7

 40
1.0
 41
35.0
 42
0.0625
 43
10.0
 44
0.18
 45
0.0
 46
0.0
 47
0.0
 48
0.0
140
35.0
141
0.09
142
0.0
143
25.4
144
1.0
145
0.0
146
1.0
147
10.0
 71
     0
 72
     0
 73
     0
 74
     0
 75
     0
 76
     0
 77
     3
 78
     0
170
     0
171
     2
172
     0
173
     0
174
     0
175
     0
176
     0
177
     0
178
     0
  0
ENDTAB
  0
ENDSEC
  0
SECTION
  2
BLOCKS
  0
BLOCK
  8
0
  2
$MODEL_SPACE
 70
     0
 10
0.0
 20
0.0
 30
0.0
  3
$MODEL_SPACE
  1

  0
ENDBLK
  5
E
  8
0
  0
BLOCK
 67
     1
  8
0
  2
$PAPER_SPACE
 70
     0
 10
0.0
 20
0.0
 30
0.0
  3
$PAPER_SPACE
  1

  0
ENDBLK
  5
10
 67
     1
  8
0
  0
BLOCK
  8
0
  2
_OPEN
 70
     0
 10
0.0
 20
0.0
 30
0.0
  3
_OPEN
  1

  0
LINE
  5
AB0
  8
0
  6
BYBLOCK
 62
     0
 10
-1.0
 20
0.1666666666666667
 30
0.0
 11
0.0
 21
0.0
 31
0.0
  0
LINE
  5
AB1
  8
0
  6
BYBLOCK
 62
     0
 10
-1.0
 20
-0.1666666666666667
 30
0.0
 11
0.0
 21
0.0
 31
0.0
  0
LINE
  5
AB2
  8
0
  6
BYBLOCK
 62
     0
 10
0.0
 20
0.0
 30
0.0
 11
-1.0
 21
0.0
 31
0.0
  0
ENDBLK
  5
AB4
  8
0
  0
BLOCK
  8
0
  2
_CLOSED
 70
     0
 10
0.0
 20
0.0
 30
0.0
  3
_CLOSED
  1

  0
LINE
  5
AB6
  8
0
  6
BYBLOCK
 62
     0
 10
-1.0
 20
0.1666666666666667
 30
0.0
 11
0.0
 21
0.0
 31
0.0
  0
LINE
  5
AB7
  8
0
  6
BYBLOCK
 62
     0
 10
0.0
 20
0.0
 30
0.0
 11
-1.0
 21
-0.1666666666666667
 31
0.0
  0
LINE
  5
AB8
  8
0
  6
BYBLOCK
 62
     0
 10
-1.0
 20
0.1666666666666667
 30
0.0
 11
-1.0
 21
-0.1666666666666667
 31
0.0
  0
LINE
  5
AB9
  8
0
  6
BYBLOCK
 62
     0
 10
0.0
 20
0.0
 30
0.0
 11
-1.0
 21
0.0
 31
0.0
  0
ENDBLK
  5
ABB
  8
0
  0
ENDSEC
  0
SECTION
  2
ENTITIES
  0
POLYLINE
  5
33B3
  8
用紙枠
 66
     1
 10
0.0
 20
0.0
 30
0.0
 70
     1
  0
VERTEX
  5
6D76
  8
用紙枠
 10
0.0
 20
0.0
 30
0.0
  0
VERTEX
  5
6D77
  8
用紙枠
 10
2970.0
 20
0.0
 30
0.0
  0
VERTEX
  5
6D78
  8
用紙枠
 10
2970.0
 20
2100.0
 30
0.0
  0
VERTEX
  5
6D79
  8
用紙枠
 10
0.0
 20
2100.0
 30
0.0
  0
SEQEND
  5
725F
  8
用紙枠
  0
POLYLINE
  5
33B4
  8
図面枠
 66
     1
 10
0.0
 20
0.0
 30
0.0
 70
     1
  0
VERTEX
  5
6D7A
  8
図面枠
 10
2870.0
 20
100.0
 30
0.0
  0
VERTEX
  5
6D7B
  8
図面枠
 10
2870.0
 20
2000.0
 30
0.0
  0
VERTEX
  5
6D7C
  8
図面枠
 10
200.0
 20
2000.0
 30
0.0
  0
VERTEX
  5
6D7D
  8
図面枠
 10
200.0
 20
100.0
 30
0.0
  0
SEQEND
  5
7260
  8
図面枠
  0
LINE
  5
33B5
  8
図面枠
 10
2870.0
 20
1893.388757552422
 30
0.0
 11
200.0
 21
1893.388757552422
 31
0.0
  0
TEXT
  5
33B6
  8
図面枠
  6
CONTINUOUS
 10
250.0
 20
1918.388757552422
 30
0.0
 40
50.0
  1
昇圧ユニット　KP-ST3-1
 11
250.0
 21
1943.388757552422
 31
0.0
 73
     2
  0
POLYLINE
  5
694A
  8
0
 66
     1
 10
0.0
 20
0.0
 30
0.0
  0
VERTEX
  5
6D7E
  8
0
 10
857.6165922584037
 20
1146.705941913969
 30
0.0
  0
VERTEX
  5
6D7F
  8
0
 10
857.7426400339325
 20
1146.701659592445
 30
0.0
  0
VERTEX
  5
6D80
  8
0
 10
857.8664763557327
 20
1146.688997609366
 30
0.0
  0
VERTEX
  5
6D81
  8
0
 10
857.9878209768455
 20
1146.668233436968
 30
0.0
  0
VERTEX
  5
6D82
  8
0
 10
858.106393650311
 20
1146.639644547489
 30
0.0
  0
VERTEX
  5
6D83
  8
0
 10
858.2219141291703
 20
1146.603508413165
 30
0.0
  0
VERTEX
  5
6D84
  8
0
 10
858.3341021664639
 20
1146.560102506233
 30
0.0
  0
VERTEX
  5
6D85
  8
0
 10
858.4426775152324
 20
1146.50970429893
 30
0.0
  0
VERTEX
  5
6D86
  8
0
 10
858.5473599285168
 20
1146.452591263493
 30
0.0
  0
VERTEX
  5
6D87
  8
0
 10
858.6478691593576
 20
1146.389040872159
 30
0.0
  0
VERTEX
  5
6D88
  8
0
 10
858.7439249607954
 20
1146.319330597165
 30
0.0
  0
VERTEX
  5
6D89
  8
0
 10
858.8352470858711
 20
1146.243737910748
 30
0.0
  0
VERTEX
  5
6D8A
  8
0
 10
858.9215552876252
 20
1146.162540285144
 30
0.0
  0
VERTEX
  5
6D8B
  8
0
 10
859.0025693190984
 20
1146.076015192591
 30
0.0
  0
VERTEX
  5
6D8C
  8
0
 10
859.0780089333315
 20
1145.984440105326
 30
0.0
  0
VERTEX
  5
6D8D
  8
0
 10
859.1475938833653
 20
1145.888092495586
 30
0.0
  0
VERTEX
  5
6D8E
  8
0
 10
859.2110439222402
 20
1145.787249835607
 30
0.0
  0
VERTEX
  5
6D8F
  8
0
 10
859.268078802997
 20
1145.682189597627
 30
0.0
  0
VERTEX
  5
6D90
  8
0
 10
859.3184182786765
 20
1145.573189253882
 30
0.0
  0
VERTEX
  5
6D91
  8
0
 10
859.3617821023192
 20
1145.460526276609
 30
0.0
  0
VERTEX
  5
6D92
  8
0
 10
859.397890026966
 20
1145.344478138046
 30
0.0
  0
VERTEX
  5
6D93
  8
0
 10
859.4264618056576
 20
1145.225322310429
 30
0.0
  0
VERTEX
  5
6D94
  8
0
 10
859.4472171914344
 20
1145.103336265996
 30
0.0
  0
VERTEX
  5
6D95
  8
0
 10
859.4598759373373
 20
1144.978797476982
 30
0.0
  0
VERTEX
  5
6D96
  8
0
 10
859.4641577964071
 20
1144.851983415626
 30
0.0
  0
VERTEX
  5
6D97
  8
0
 10
859.4641577964071
 20
1143.351597071247
 30
0.0
  0
VERTEX
  5
6D98
  8
0
 10
859.4641577964071
 20
1139.021910763185
 30
0.0
  0
VERTEX
  5
6D99
  8
0
 10
859.4641577964071
 20
1132.120133579047
 30
0.0
  0
VERTEX
  5
6D9A
  8
0
 10
859.464157796407
 20
1122.903474606439
 30
0.0
  0
VERTEX
  5
6D9B
  8
0
 10
859.4641577964071
 20
1111.629142932971
 30
0.0
  0
VERTEX
  5
6D9C
  8
0
 10
859.4641577964072
 20
1098.554347646249
 30
0.0
  0
VERTEX
  5
6D9D
  8
0
 10
859.4641577964071
 20
1083.936297833882
 30
0.0
  0
VERTEX
  5
6D9E
  8
0
 10
859.4641577964071
 20
1068.032202583476
 30
0.0
  0
VERTEX
  5
6D9F
  8
0
 10
859.464157796407
 20
1051.09927098264
 30
0.0
  0
VERTEX
  5
6DA0
  8
0
 10
859.4641577964071
 20
1033.394712118981
 30
0.0
  0
VERTEX
  5
6DA1
  8
0
 10
859.4641577964073
 20
1015.175735080107
 30
0.0
  0
VERTEX
  5
6DA2
  8
0
 10
859.4641577964071
 20
996.6995489536248
 30
0.0
  0
VERTEX
  5
6DA3
  8
0
 10
859.4641577964071
 20
978.2233628271432
 30
0.0
  0
VERTEX
  5
6DA4
  8
0
 10
859.4641577964071
 20
960.0043857882691
 30
0.0
  0
VERTEX
  5
6DA5
  8
0
 10
859.4641577964071
 20
942.2998269246103
 30
0.0
  0
VERTEX
  5
6DA6
  8
0
 10
859.4641577964071
 20
925.3668953237748
 30
0.0
  0
VERTEX
  5
6DA7
  8
0
 10
859.4641577964071
 20
909.4628000733697
 30
0.0
  0
VERTEX
  5
6DA8
  8
0
 10
859.4641577964071
 20
894.8447502610029
 30
0.0
  0
VERTEX
  5
6DA9
  8
0
 10
859.4641577964071
 20
881.769954974282
 30
0.0
  0
VERTEX
  5
6DAA
  8
0
 10
859.4641577964071
 20
870.4956233008147
 30
0.0
  0
VERTEX
  5
6DAB
  8
0
 10
859.4641577964071
 20
861.2789643282085
 30
0.0
  0
VERTEX
  5
6DAC
  8
0
 10
859.4641577964071
 20
854.3771871440711
 30
0.0
  0
VERTEX
  5
6DAD
  8
0
 10
859.4641577964071
 20
850.0475008360102
 30
0.0
  0
VERTEX
  5
6DAE
  8
0
 10
859.4641577964071
 20
848.5471144916332
 30
0.0
  0
SEQEND
  5
7261
  8
0
  0
POLYLINE
  5
694B
  8
0
 66
     1
 10
0.0
 20
0.0
 30
0.0
  0
VERTEX
  5
6DAF
  8
0
 10
679.4641577964071
 20
1144.851983415626
 30
0.0
  0
VERTEX
  5
6DB0
  8
0
 10
679.4683758368622
 20
1144.978797476982
 30
0.0
  0
VERTEX
  5
6DB1
  8
0
 10
679.4808542258112
 20
1145.103336265996
 30
0.0
  0
VERTEX
  5
6DB2
  8
0
 10
679.5013293646289
 20
1145.225322310429
 30
0.0
  0
VERTEX
  5
6DB3
  8
0
 10
679.5295376546899
 20
1145.344478138046
 30
0.0
  0
VERTEX
  5
6DB4
  8
0
 10
679.5652154973695
 20
1145.460526276609
 30
0.0
  0
VERTEX
  5
6DB5
  8
0
 10
679.6080992940425
 20
1145.573189253882
 30
0.0
  0
VERTEX
  5
6DB6
  8
0
 10
679.6579254460836
 20
1145.682189597627
 30
0.0
  0
VERTEX
  5
6DB7
  8
0
 10
679.7144303548679
 20
1145.787249835607
 30
0.0
  0
VERTEX
  5
6DB8
  8
0
 10
679.7773504217704
 20
1145.888092495586
 30
0.0
  0
VERTEX
  5
6DB9
  8
0
 10
679.8464220481657
 20
1145.984440105326
 30
0.0
  0
VERTEX
  5
6DBA
  8
0
 10
679.9213816354289
 20
1146.076015192591
 30
0.0
  0
VERTEX
  5
6DBB
  8
0
 10
680.0019655849351
 20
1146.162540285144
 30
0.0
  0
VERTEX
  5
6DBC
  8
0
 10
680.0879102980587
 20
1146.243737910747
 30
0.0
  0
VERTEX
  5
6DBD
  8
0
 10
680.178952176175
 20
1146.319330597164
 30
0.0
  0
VERTEX
  5
6DBE
  8
0
 10
680.2748276206588
 20
1146.389040872159
 30
0.0
  0
VERTEX
  5
6DBF
  8
0
 10
680.375273032885
 20
1146.452591263493
 30
0.0
  0
VERTEX
  5
6DC0
  8
0
 10
680.4800248142287
 20
1146.50970429893
 30
0.0
  0
VERTEX
  5
6DC1
  8
0
 10
680.5888193660644
 20
1146.560102506233
 30
0.0
  0
VERTEX
  5
6DC2
  8
0
 10
680.7013930897674
 20
1146.603508413165
 30
0.0
  0
VERTEX
  5
6DC3
  8
0
 10
680.8174823867123
 20
1146.639644547489
 30
0.0
  0
VERTEX
  5
6DC4
  8
0
 10
680.9368236582742
 20
1146.668233436968
 30
0.0
  0
VERTEX
  5
6DC5
  8
0
 10
681.0591533058279
 20
1146.688997609366
 30
0.0
  0
VERTEX
  5
6DC6
  8
0
 10
681.1842077307484
 20
1146.701659592445
 30
0.0
  0
VERTEX
  5
6DC7
  8
0
 10
681.3117233344105
 20
1146.705941913969
 30
0.0
  0
SEQEND
  5
7262
  8
0
  0
POLYLINE
  5
694C
  8
0
 66
     1
 10
0.0
 20
0.0
 30
0.0
  0
VERTEX
  5
6DC8
  8
0
 10
681.3117233344105
 20
846.7059419139687
 30
0.0
  0
VERTEX
  5
6DC9
  8
0
 10
681.1842077307484
 20
846.7101594919701
 30
0.0
  0
VERTEX
  5
6DCA
  8
0
 10
681.059153305828
 20
846.722634643743
 30
0.0
  0
VERTEX
  5
6DCB
  8
0
 10
680.9368236582742
 20
846.7431009959398
 30
0.0
  0
VERTEX
  5
6DCC
  8
0
 10
680.8174823867122
 20
846.7712921752129
 30
0.0
  0
VERTEX
  5
6DCD
  8
0
 10
680.7013930897673
 20
846.8069418082151
 30
0.0
  0
VERTEX
  5
6DCE
  8
0
 10
680.5888193660645
 20
846.8497835215987
 30
0.0
  0
VERTEX
  5
6DCF
  8
0
 10
680.4800248142287
 20
846.8995509420164
 30
0.0
  0
VERTEX
  5
6DD0
  8
0
 10
680.375273032885
 20
846.9559776961206
 30
0.0
  0
VERTEX
  5
6DD1
  8
0
 10
680.2748276206589
 20
847.018797410564
 30
0.0
  0
VERTEX
  5
6DD2
  8
0
 10
680.178952176175
 20
847.087743711999
 30
0.0
  0
VERTEX
  5
6DD3
  8
0
 10
680.0879102980588
 20
847.1625502270781
 30
0.0
  0
VERTEX
  5
6DD4
  8
0
 10
680.0019655849349
 20
847.2429505824541
 30
0.0
  0
VERTEX
  5
6DD5
  8
0
 10
679.9213816354289
 20
847.3286784047793
 30
0.0
  0
VERTEX
  5
6DD6
  8
0
 10
679.8464220481658
 20
847.4194673207062
 30
0.0
  0
VERTEX
  5
6DD7
  8
0
 10
679.7773504217703
 20
847.5150509568876
 30
0.0
  0
VERTEX
  5
6DD8
  8
0
 10
679.714430354868
 20
847.6151629399758
 30
0.0
  0
VERTEX
  5
6DD9
  8
0
 10
679.6579254460835
 20
847.7195368966233
 30
0.0
  0
VERTEX
  5
6DDA
  8
0
 10
679.6080992940424
 20
847.8279064534829
 30
0.0
  0
VERTEX
  5
6DDB
  8
0
 10
679.5652154973694
 20
847.9400052372068
 30
0.0
  0
VERTEX
  5
6DDC
  8
0
 10
679.5295376546899
 20
848.055566874448
 30
0.0
  0
VERTEX
  5
6DDD
  8
0
 10
679.5013293646289
 20
848.1743249918586
 30
0.0
  0
VERTEX
  5
6DDE
  8
0
 10
679.4808542258113
 20
848.2960132160914
 30
0.0
  0
VERTEX
  5
6DDF
  8
0
 10
679.4683758368624
 20
848.4203651737987
 30
0.0
  0
VERTEX
  5
6DE0
  8
0
 10
679.4641577964071
 20
848.5471144916332
 30
0.0
  0
SEQEND
  5
7263
  8
0
  0
POLYLINE
  5
694D
  8
0
 10
0.0
 20
0.0
 30
0.0
 66
     1
 70
     8
  0
VERTEX
  5
6DE1
  8
0
 10
857.6165922584037
 20
846.7059419139687
 30
0.0
 70
    32
  0
VERTEX
  5
6DE2
  8
0
 10
856.7238448029148
 20
846.7059419139687
 30
0.0
 70
    32
  0
VERTEX
  5
6DE3
  8
0
 10
854.147630717075
 20
846.7059419139686
 30
0.0
 70
    32
  0
VERTEX
  5
6DE4
  8
0
 10
850.0409924218259
 20
846.7059419139688
 30
0.0
 70
    32
  0
VERTEX
  5
6DE5
  8
0
 10
844.5569723381077
 20
846.7059419139687
 30
0.0
 70
    32
  0
VERTEX
  5
6DE6
  8
0
 10
837.8486128868619
 20
846.7059419139687
 30
0.0
 70
    32
  0
VERTEX
  5
6DE7
  8
0
 10
830.0689564890297
 20
846.7059419139687
 30
0.0
 70
    32
  0
VERTEX
  5
6DE8
  8
0
 10
821.3710455655514
 20
846.7059419139687
 30
0.0
 70
    32
  0
VERTEX
  5
6DE9
  8
0
 10
811.9079225373682
 20
846.7059419139687
 30
0.0
 70
    32
  0
VERTEX
  5
6DEA
  8
0
 10
801.8326298254213
 20
846.7059419139686
 30
0.0
 70
    32
  0
VERTEX
  5
6DEB
  8
0
 10
791.2982098506513
 20
846.7059419139687
 30
0.0
 70
    32
  0
VERTEX
  5
6DEC
  8
0
 10
780.4577050339996
 20
846.7059419139688
 30
0.0
 70
    32
  0
VERTEX
  5
6DED
  8
0
 10
769.4641577964069
 20
846.7059419139687
 30
0.0
 70
    32
  0
VERTEX
  5
6DEE
  8
0
 10
758.4706105588142
 20
846.7059419139687
 30
0.0
 70
    32
  0
VERTEX
  5
6DEF
  8
0
 10
747.6301057421623
 20
846.7059419139687
 30
0.0
 70
    32
  0
VERTEX
  5
6DF0
  8
0
 10
737.0956857673925
 20
846.7059419139686
 30
0.0
 70
    32
  0
VERTEX
  5
6DF1
  8
0
 10
727.0203930554455
 20
846.7059419139687
 30
0.0
 70
    32
  0
VERTEX
  5
6DF2
  8
0
 10
717.5572700272625
 20
846.7059419139687
 30
0.0
 70
    32
  0
VERTEX
  5
6DF3
  8
0
 10
708.8593591037842
 20
846.7059419139687
 30
0.0
 70
    32
  0
VERTEX
  5
6DF4
  8
0
 10
701.0797027059518
 20
846.7059419139687
 30
0.0
 70
    32
  0
VERTEX
  5
6DF5
  8
0
 10
694.3713432547061
 20
846.7059419139686
 30
0.0
 70
    32
  0
VERTEX
  5
6DF6
  8
0
 10
688.8873231709882
 20
846.7059419139687
 30
0.0
 70
    32
  0
VERTEX
  5
6DF7
  8
0
 10
684.780684875739
 20
846.7059419139687
 30
0.0
 70
    32
  0
VERTEX
  5
6DF8
  8
0
 10
682.2044707898995
 20
846.7059419139686
 30
0.0
 70
    32
  0
VERTEX
  5
6DF9
  8
0
 10
681.3117233344105
 20
846.7059419139687
 30
0.0
 70
    32
  0
SEQEND
  5
7264
  8
0
  0
POLYLINE
  5
694E
  8
0
 66
     1
 10
0.0
 20
0.0
 30
0.0
  0
VERTEX
  5
6DFA
  8
0
 10
859.4641577964071
 20
848.5471144916332
 30
0.0
  0
VERTEX
  5
6DFB
  8
0
 10
859.4598759373374
 20
848.4203651737987
 30
0.0
  0
VERTEX
  5
6DFC
  8
0
 10
859.4472171914343
 20
848.2960132160913
 30
0.0
  0
VERTEX
  5
6DFD
  8
0
 10
859.4264618056576
 20
848.1743249918586
 30
0.0
  0
VERTEX
  5
6DFE
  8
0
 10
859.3978900269663
 20
848.0555668744481
 30
0.0
  0
VERTEX
  5
6DFF
  8
0
 10
859.3617821023194
 20
847.9400052372071
 30
0.0
  0
VERTEX
  5
6E00
  8
0
 10
859.3184182786764
 20
847.827906453483
 30
0.0
  0
VERTEX
  5
6E01
  8
0
 10
859.2680788029969
 20
847.7195368966233
 30
0.0
  0
VERTEX
  5
6E02
  8
0
 10
859.21104392224
 20
847.6151629399758
 30
0.0
  0
VERTEX
  5
6E03
  8
0
 10
859.1475938833653
 20
847.5150509568875
 30
0.0
  0
VERTEX
  5
6E04
  8
0
 10
859.0780089333314
 20
847.4194673207062
 30
0.0
  0
VERTEX
  5
6E05
  8
0
 10
859.0025693190985
 20
847.3286784047792
 30
0.0
  0
VERTEX
  5
6E06
  8
0
 10
858.9215552876251
 20
847.242950582454
 30
0.0
  0
VERTEX
  5
6E07
  8
0
 10
858.8352470858711
 20
847.1625502270782
 30
0.0
  0
VERTEX
  5
6E08
  8
0
 10
858.7439249607954
 20
847.087743711999
 30
0.0
  0
VERTEX
  5
6E09
  8
0
 10
858.6478691593575
 20
847.018797410564
 30
0.0
  0
VERTEX
  5
6E0A
  8
0
 10
858.5473599285167
 20
846.9559776961206
 30
0.0
  0
VERTEX
  5
6E0B
  8
0
 10
858.4426775152325
 20
846.8995509420164
 30
0.0
  0
VERTEX
  5
6E0C
  8
0
 10
858.3341021664639
 20
846.8497835215987
 30
0.0
  0
VERTEX
  5
6E0D
  8
0
 10
858.2219141291703
 20
846.806941808215
 30
0.0
  0
VERTEX
  5
6E0E
  8
0
 10
858.106393650311
 20
846.7712921752129
 30
0.0
  0
VERTEX
  5
6E0F
  8
0
 10
857.9878209768455
 20
846.7431009959397
 30
0.0
  0
VERTEX
  5
6E10
  8
0
 10
857.8664763557329
 20
846.722634643743
 30
0.0
  0
VERTEX
  5
6E11
  8
0
 10
857.7426400339324
 20
846.7101594919701
 30
0.0
  0
VERTEX
  5
6E12
  8
0
 10
857.6165922584037
 20
846.7059419139687
 30
0.0
  0
SEQEND
  5
7265
  8
0
  0
POLYLINE
  5
694F
  8
0
 10
0.0
 20
0.0
 30
0.0
 66
     1
 70
     8
  0
VERTEX
  5
6E13
  8
0
 10
679.4641577964071
 20
848.5471144916332
 30
0.0
 70
    32
  0
VERTEX
  5
6E14
  8
0
 10
679.4641577964071
 20
850.0475008360111
 30
0.0
 70
    32
  0
VERTEX
  5
6E15
  8
0
 10
679.4641577964071
 20
854.3771871440729
 30
0.0
 70
    32
  0
VERTEX
  5
6E16
  8
0
 10
679.4641577964071
 20
861.2789643282109
 30
0.0
 70
    32
  0
VERTEX
  5
6E17
  8
0
 10
679.464157796407
 20
870.4956233008178
 30
0.0
 70
    32
  0
VERTEX
  5
6E18
  8
0
 10
679.464157796407
 20
881.7699549742856
 30
0.0
 70
    32
  0
VERTEX
  5
6E19
  8
0
 10
679.4641577964071
 20
894.8447502610068
 30
0.0
 70
    32
  0
VERTEX
  5
6E1A
  8
0
 10
679.4641577964071
 20
909.4628000733738
 30
0.0
 70
    32
  0
VERTEX
  5
6E1B
  8
0
 10
679.4641577964071
 20
925.366895323779
 30
0.0
 70
    32
  0
VERTEX
  5
6E1C
  8
0
 10
679.4641577964071
 20
942.2998269246148
 30
0.0
 70
    32
  0
VERTEX
  5
6E1D
  8
0
 10
679.4641577964071
 20
960.0043857882733
 30
0.0
 70
    32
  0
VERTEX
  5
6E1E
  8
0
 10
679.4641577964072
 20
978.2233628271472
 30
0.0
 70
    32
  0
VERTEX
  5
6E1F
  8
0
 10
679.4641577964071
 20
996.6995489536289
 30
0.0
 70
    32
  0
VERTEX
  5
6E20
  8
0
 10
679.4641577964072
 20
1015.17573508011
 30
0.0
 70
    32
  0
VERTEX
  5
6E21
  8
0
 10
679.4641577964072
 20
1033.394712118984
 30
0.0
 70
    32
  0
VERTEX
  5
6E22
  8
0
 10
679.4641577964071
 20
1051.099270982643
 30
0.0
 70
    32
  0
VERTEX
  5
6E23
  8
0
 10
679.4641577964071
 20
1068.032202583479
 30
0.0
 70
    32
  0
VERTEX
  5
6E24
  8
0
 10
679.4641577964071
 20
1083.936297833884
 30
0.0
 70
    32
  0
VERTEX
  5
6E25
  8
0
 10
679.4641577964071
 20
1098.554347646251
 30
0.0
 70
    32
  0
VERTEX
  5
6E26
  8
0
 10
679.464157796407
 20
1111.629142932972
 30
0.0
 70
    32
  0
VERTEX
  5
6E27
  8
0
 10
679.4641577964071
 20
1122.903474606441
 30
0.0
 70
    32
  0
VERTEX
  5
6E28
  8
0
 10
679.4641577964071
 20
1132.120133579047
 30
0.0
 70
    32
  0
VERTEX
  5
6E29
  8
0
 10
679.4641577964071
 20
1139.021910763186
 30
0.0
 70
    32
  0
VERTEX
  5
6E2A
  8
0
 10
679.4641577964071
 20
1143.351597071248
 30
0.0
 70
    32
  0
VERTEX
  5
6E2B
  8
0
 10
679.4641577964071
 20
1144.851983415626
 30
0.0
 70
    32
  0
SEQEND
  5
7266
  8
0
  0
POLYLINE
  5
6950
  8
0
 10
0.0
 20
0.0
 30
0.0
 66
     1
 70
     8
  0
VERTEX
  5
6E2C
  8
0
 10
681.3117233344105
 20
1146.705941913969
 30
0.0
 70
    32
  0
VERTEX
  5
6E2D
  8
0
 10
682.2044707898996
 20
1146.705941913969
 30
0.0
 70
    32
  0
VERTEX
  5
6E2E
  8
0
 10
684.7806848757392
 20
1146.705941913969
 30
0.0
 70
    32
  0
VERTEX
  5
6E2F
  8
0
 10
688.8873231709886
 20
1146.705941913969
 30
0.0
 70
    32
  0
VERTEX
  5
6E30
  8
0
 10
694.3713432547064
 20
1146.705941913968
 30
0.0
 70
    32
  0
VERTEX
  5
6E31
  8
0
 10
701.0797027059522
 20
1146.705941913969
 30
0.0
 70
    32
  0
VERTEX
  5
6E32
  8
0
 10
708.8593591037848
 20
1146.705941913969
 30
0.0
 70
    32
  0
VERTEX
  5
6E33
  8
0
 10
717.5572700272631
 20
1146.705941913969
 30
0.0
 70
    32
  0
VERTEX
  5
6E34
  8
0
 10
727.0203930554463
 20
1146.705941913969
 30
0.0
 70
    32
  0
VERTEX
  5
6E35
  8
0
 10
737.0956857673934
 20
1146.705941913969
 30
0.0
 70
    32
  0
VERTEX
  5
6E36
  8
0
 10
747.6301057421633
 20
1146.705941913969
 30
0.0
 70
    32
  0
VERTEX
  5
6E37
  8
0
 10
758.4706105588152
 20
1146.705941913969
 30
0.0
 70
    32
  0
VERTEX
  5
6E38
  8
0
 10
769.464157796408
 20
1146.705941913969
 30
0.0
 70
    32
  0
VERTEX
  5
6E39
  8
0
 10
780.4577050340007
 20
1146.705941913968
 30
0.0
 70
    32
  0
VERTEX
  5
6E3A
  8
0
 10
791.2982098506527
 20
1146.705941913969
 30
0.0
 70
    32
  0
VERTEX
  5
6E3B
  8
0
 10
801.8326298254226
 20
1146.705941913969
 30
0.0
 70
    32
  0
VERTEX
  5
6E3C
  8
0
 10
811.9079225373696
 20
1146.705941913969
 30
0.0
 70
    32
  0
VERTEX
  5
6E3D
  8
0
 10
821.3710455655525
 20
1146.705941913969
 30
0.0
 70
    32
  0
VERTEX
  5
6E3E
  8
0
 10
830.0689564890308
 20
1146.705941913969
 30
0.0
 70
    32
  0
VERTEX
  5
6E3F
  8
0
 10
837.8486128868632
 20
1146.705941913969
 30
0.0
 70
    32
  0
VERTEX
  5
6E40
  8
0
 10
844.5569723381087
 20
1146.705941913969
 30
0.0
 70
    32
  0
VERTEX
  5
6E41
  8
0
 10
850.0409924218266
 20
1146.705941913969
 30
0.0
 70
    32
  0
VERTEX
  5
6E42
  8
0
 10
854.1476307170756
 20
1146.705941913969
 30
0.0
 70
    32
  0
VERTEX
  5
6E43
  8
0
 10
856.7238448029149
 20
1146.705941913969
 30
0.0
 70
    32
  0
VERTEX
  5
6E44
  8
0
 10
857.6165922584037
 20
1146.705941913969
 30
0.0
 70
    32
  0
SEQEND
  5
7267
  8
0
  0
POLYLINE
  5
6951
  8
0
 10
0.0
 20
0.0
 30
0.0
 66
     1
 70
     8
  0
VERTEX
  5
6E45
  8
0
 10
925.2862687560023
 20
846.7059419139686
 30
0.0
 70
    32
  0
VERTEX
  5
6E46
  8
0
 10
925.1990268601711
 20
846.7059419139686
 30
0.0
 70
    32
  0
VERTEX
  5
6E47
  8
0
 10
924.9472716750573
 20
846.7059419139686
 30
0.0
 70
    32
  0
VERTEX
  5
6E48
  8
0
 10
924.5459589542327
 20
846.7059419139684
 30
0.0
 70
    32
  0
VERTEX
  5
6E49
  8
0
 10
924.0100444512683
 20
846.7059419139687
 30
0.0
 70
    32
  0
VERTEX
  5
6E4A
  8
0
 10
923.3544839197349
 20
846.7059419139686
 30
0.0
 70
    32
  0
VERTEX
  5
6E4B
  8
0
 10
922.5942331132036
 20
846.7059419139686
 30
0.0
 70
    32
  0
VERTEX
  5
6E4C
  8
0
 10
921.744247785246
 20
846.7059419139686
 30
0.0
 70
    32
  0
VERTEX
  5
6E4D
  8
0
 10
920.8194836894328
 20
846.7059419139687
 30
0.0
 70
    32
  0
VERTEX
  5
6E4E
  8
0
 10
919.8348965793351
 20
846.7059419139686
 30
0.0
 70
    32
  0
VERTEX
  5
6E4F
  8
0
 10
918.8054422085241
 20
846.7059419139686
 30
0.0
 70
    32
  0
VERTEX
  5
6E50
  8
0
 10
917.746076330571
 20
846.7059419139686
 30
0.0
 70
    32
  0
VERTEX
  5
6E51
  8
0
 10
916.6717546990467
 20
846.7059419139686
 30
0.0
 70
    32
  0
VERTEX
  5
6E52
  8
0
 10
915.5974330675224
 20
846.7059419139684
 30
0.0
 70
    32
  0
VERTEX
  5
6E53
  8
0
 10
914.5380671895693
 20
846.7059419139687
 30
0.0
 70
    32
  0
VERTEX
  5
6E54
  8
0
 10
913.5086128187584
 20
846.7059419139687
 30
0.0
 70
    32
  0
VERTEX
  5
6E55
  8
0
 10
912.5240257086607
 20
846.7059419139686
 30
0.0
 70
    32
  0
VERTEX
  5
6E56
  8
0
 10
911.5992616128476
 20
846.7059419139687
 30
0.0
 70
    32
  0
VERTEX
  5
6E57
  8
0
 10
910.7492762848897
 20
846.7059419139686
 30
0.0
 70
    32
  0
VERTEX
  5
6E58
  8
0
 10
909.9890254783586
 20
846.7059419139684
 30
0.0
 70
    32
  0
VERTEX
  5
6E59
  8
0
 10
909.3334649468252
 20
846.7059419139684
 30
0.0
 70
    32
  0
VERTEX
  5
6E5A
  8
0
 10
908.7975504438607
 20
846.7059419139686
 30
0.0
 70
    32
  0
VERTEX
  5
6E5B
  8
0
 10
908.3962377230362
 20
846.7059419139686
 30
0.0
 70
    32
  0
VERTEX
  5
6E5C
  8
0
 10
908.1444825379226
 20
846.7059419139684
 30
0.0
 70
    32
  0
VERTEX
  5
6E5D
  8
0
 10
908.0572406420911
 20
846.7059419139686
 30
0.0
 70
    32
  0
SEQEND
  5
7268
  8
0
  0
POLYLINE
  5
6952
  8
0
 66
     1
 10
0.0
 20
0.0
 30
0.0
  0
VERTEX
  5
6E5E
  8
0
 10
908.0572406420911
 20
846.7059419139686
 30
0.0
  0
VERTEX
  5
6E5F
  8
0
 10
907.9311604948014
 20
846.7101918637311
 30
0.0
  0
VERTEX
  5
6E60
  8
0
 10
907.8072307573478
 20
846.722760431157
 30
0.0
  0
VERTEX
  5
6E61
  8
0
 10
907.685737226135
 20
846.7433756934543
 30
0.0
  0
VERTEX
  5
6E62
  8
0
 10
907.566965697566
 20
846.7717657278305
 30
0.0
  0
VERTEX
  5
6E63
  8
0
 10
907.4512019680458
 20
846.8076586114936
 30
0.0
  0
VERTEX
  5
6E64
  8
0
 10
907.338731833978
 20
846.8507824216516
 30
0.0
  0
VERTEX
  5
6E65
  8
0
 10
907.2298410917667
 20
846.9008652355118
 30
0.0
  0
VERTEX
  5
6E66
  8
0
 10
907.1248155378161
 20
846.9576351302826
 30
0.0
  0
VERTEX
  5
6E67
  8
0
 10
907.02394096853
 20
847.0208201831713
 30
0.0
  0
VERTEX
  5
6E68
  8
0
 10
906.9275031803127
 20
847.0901484713858
 30
0.0
  0
VERTEX
  5
6E69
  8
0
 10
906.835787969568
 20
847.165348072134
 30
0.0
  0
VERTEX
  5
6E6A
  8
0
 10
906.7490811327002
 20
847.2461470626237
 30
0.0
  0
VERTEX
  5
6E6B
  8
0
 10
906.6676684661131
 20
847.3322735200627
 30
0.0
  0
VERTEX
  5
6E6C
  8
0
 10
906.5918357662109
 20
847.4234555216585
 30
0.0
  0
VERTEX
  5
6E6D
  8
0
 10
906.5218688293976
 20
847.5194211446194
 30
0.0
  0
VERTEX
  5
6E6E
  8
0
 10
906.4580534520774
 20
847.6198984661529
 30
0.0
  0
VERTEX
  5
6E6F
  8
0
 10
906.4006754306542
 20
847.7246155634671
 30
0.0
  0
VERTEX
  5
6E70
  8
0
 10
906.3500205615319
 20
847.8333005137691
 30
0.0
  0
VERTEX
  5
6E71
  8
0
 10
906.3063746411151
 20
847.9456813942675
 30
0.0
  0
VERTEX
  5
6E72
  8
0
 10
906.2700234658071
 20
848.0614862821694
 30
0.0
  0
VERTEX
  5
6E73
  8
0
 10
906.2412528320126
 20
848.1804432546834
 30
0.0
  0
VERTEX
  5
6E74
  8
0
 10
906.2203485361351
 20
848.3022803890165
 30
0.0
  0
VERTEX
  5
6E75
  8
0
 10
906.207596374579
 20
848.4267257623769
 30
0.0
  0
VERTEX
  5
6E76
  8
0
 10
906.2032821437483
 20
848.5535074519725
 30
0.0
  0
SEQEND
  5
7269
  8
0
  0
POLYLINE
  5
6953
  8
0
 10
0.0
 20
0.0
 30
0.0
 66
     1
 70
     8
  0
VERTEX
  5
6E77
  8
0
 10
954.4317749420206
 20
856.4871712328123
 30
0.0
 70
    32
  0
VERTEX
  5
6E78
  8
0
 10
954.4317749420208
 20
856.4705968911926
 30
0.0
 70
    32
  0
VERTEX
  5
6E79
  8
0
 10
954.4317749420206
 20
856.4227680768034
 30
0.0
 70
    32
  0
VERTEX
  5
6E7A
  8
0
 10
954.4317749420206
 20
856.3465261053519
 30
0.0
 70
    32
  0
VERTEX
  5
6E7B
  8
0
 10
954.4317749420206
 20
856.2447122925438
 30
0.0
 70
    32
  0
VERTEX
  5
6E7C
  8
0
 10
954.4317749420206
 20
856.1201679540856
 30
0.0
 70
    32
  0
VERTEX
  5
6E7D
  8
0
 10
954.4317749420206
 20
855.9757344056832
 30
0.0
 70
    32
  0
VERTEX
  5
6E7E
  8
0
 10
954.4317749420206
 20
855.8142529630435
 30
0.0
 70
    32
  0
VERTEX
  5
6E7F
  8
0
 10
954.4317749420208
 20
855.6385649418722
 30
0.0
 70
    32
  0
VERTEX
  5
6E80
  8
0
 10
954.4317749420208
 20
855.4515116578759
 30
0.0
 70
    32
  0
VERTEX
  5
6E81
  8
0
 10
954.4317749420205
 20
855.2559344267607
 30
0.0
 70
    32
  0
VERTEX
  5
6E82
  8
0
 10
954.4317749420206
 20
855.0546745642332
 30
0.0
 70
    32
  0
VERTEX
  5
6E83
  8
0
 10
954.4317749420206
 20
854.8505733859993
 30
0.0
 70
    32
  0
VERTEX
  5
6E84
  8
0
 10
954.4317749420206
 20
854.6464722077653
 30
0.0
 70
    32
  0
VERTEX
  5
6E85
  8
0
 10
954.4317749420206
 20
854.4452123452377
 30
0.0
 70
    32
  0
VERTEX
  5
6E86
  8
0
 10
954.4317749420206
 20
854.2496351141226
 30
0.0
 70
    32
  0
VERTEX
  5
6E87
  8
0
 10
954.4317749420206
 20
854.0625818301263
 30
0.0
 70
    32
  0
VERTEX
  5
6E88
  8
0
 10
954.4317749420209
 20
853.8868938089552
 30
0.0
 70
    32
  0
VERTEX
  5
6E89
  8
0
 10
954.4317749420205
 20
853.7254123663154
 30
0.0
 70
    32
  0
VERTEX
  5
6E8A
  8
0
 10
954.4317749420206
 20
853.5809788179131
 30
0.0
 70
    32
  0
VERTEX
  5
6E8B
  8
0
 10
954.4317749420206
 20
853.4564344794549
 30
0.0
 70
    32
  0
VERTEX
  5
6E8C
  8
0
 10
954.4317749420206
 20
853.3546206666467
 30
0.0
 70
    32
  0
VERTEX
  5
6E8D
  8
0
 10
954.4317749420206
 20
853.2783786951951
 30
0.0
 70
    32
  0
VERTEX
  5
6E8E
  8
0
 10
954.4317749420206
 20
853.2305498808062
 30
0.0
 70
    32
  0
VERTEX
  5
6E8F
  8
0
 10
954.4317749420206
 20
853.2139755391862
 30
0.0
 70
    32
  0
SEQEND
  5
726A
  8
0
  0
POLYLINE
  5
6954
  8
0
 10
0.0
 20
0.0
 30
0.0
 66
     1
 70
     8
  0
VERTEX
  5
6E90
  8
0
 10
925.2862687560018
 20
1146.705941913969
 30
0.0
 70
    32
  0
VERTEX
  5
6E91
  8
0
 10
925.2862687560018
 20
1145.186844691747
 30
0.0
 70
    32
  0
VERTEX
  5
6E92
  8
0
 10
925.2862687560018
 20
1140.803164136191
 30
0.0
 70
    32
  0
VERTEX
  5
6E93
  8
0
 10
925.2862687560018
 20
1133.815316913969
 30
0.0
 70
    32
  0
VERTEX
  5
6E94
  8
0
 10
925.2862687560018
 20
1124.483719691746
 30
0.0
 70
    32
  0
VERTEX
  5
6E95
  8
0
 10
925.2862687560017
 20
1113.06878913619
 30
0.0
 70
    32
  0
VERTEX
  5
6E96
  8
0
 10
925.286268756002
 20
1099.830941913968
 30
0.0
 70
    32
  0
VERTEX
  5
6E97
  8
0
 10
925.286268756002
 20
1085.030594691746
 30
0.0
 70
    32
  0
VERTEX
  5
6E98
  8
0
 10
925.2862687560021
 20
1068.92816413619
 30
0.0
 70
    32
  0
VERTEX
  5
6E99
  8
0
 10
925.286268756002
 20
1051.784066913968
 30
0.0
 70
    32
  0
VERTEX
  5
6E9A
  8
0
 10
925.2862687560021
 20
1033.858719691745
 30
0.0
 70
    32
  0
VERTEX
  5
6E9B
  8
0
 10
925.2862687560021
 20
1015.412539136189
 30
0.0
 70
    32
  0
VERTEX
  5
6E9C
  8
0
 10
925.2862687560021
 20
996.705941913967
 30
0.0
 70
    32
  0
VERTEX
  5
6E9D
  8
0
 10
925.2862687560021
 20
977.9993446917445
 30
0.0
 70
    32
  0
VERTEX
  5
6E9E
  8
0
 10
925.2862687560021
 20
959.5531641361889
 30
0.0
 70
    32
  0
VERTEX
  5
6E9F
  8
0
 10
925.2862687560022
 20
941.6278169139666
 30
0.0
 70
    32
  0
VERTEX
  5
6EA0
  8
0
 10
925.2862687560023
 20
924.4837196917445
 30
0.0
 70
    32
  0
VERTEX
  5
6EA1
  8
0
 10
925.2862687560023
 20
908.3812891361889
 30
0.0
 70
    32
  0
VERTEX
  5
6EA2
  8
0
 10
925.2862687560023
 20
893.5809419139667
 30
0.0
 70
    32
  0
VERTEX
  5
6EA3
  8
0
 10
925.2862687560023
 20
880.3430946917447
 30
0.0
 70
    32
  0
VERTEX
  5
6EA4
  8
0
 10
925.2862687560023
 20
868.9281641361893
 30
0.0
 70
    32
  0
VERTEX
  5
6EA5
  8
0
 10
925.2862687560023
 20
859.5965669139673
 30
0.0
 70
    32
  0
VERTEX
  5
6EA6
  8
0
 10
925.2862687560022
 20
852.6087196917454
 30
0.0
 70
    32
  0
VERTEX
  5
6EA7
  8
0
 10
925.2862687560023
 20
848.2250391361902
 30
0.0
 70
    32
  0
VERTEX
  5
6EA8
  8
0
 10
925.2862687560023
 20
846.7059419139686
 30
0.0
 70
    32
  0
SEQEND
  5
726B
  8
0
  0
POLYLINE
  5
6955
  8
0
 66
     1
 10
0.0
 20
0.0
 30
0.0
  0
VERTEX
  5
6EA9
  8
0
 10
906.2032821437479
 20
1144.864769336304
 30
0.0
  0
VERTEX
  5
6EAA
  8
0
 10
906.2075963745785
 20
1144.990784740072
 30
0.0
  0
VERTEX
  5
6EAB
  8
0
 10
906.2203485361347
 20
1145.114527646219
 30
0.0
  0
VERTEX
  5
6EAC
  8
0
 10
906.241252832012
 20
1145.235723357231
 30
0.0
  0
VERTEX
  5
6EAD
  8
0
 10
906.2700234658066
 20
1145.354097175594
 30
0.0
  0
VERTEX
  5
6EAE
  8
0
 10
906.3063746411145
 20
1145.469374403792
 30
0.0
  0
VERTEX
  5
6EAF
  8
0
 10
906.3500205615317
 20
1145.581280344311
 30
0.0
  0
VERTEX
  5
6EB0
  8
0
 10
906.4006754306537
 20
1145.689540299637
 30
0.0
  0
VERTEX
  5
6EB1
  8
0
 10
906.4580534520771
 20
1145.793879572255
 30
0.0
  0
VERTEX
  5
6EB2
  8
0
 10
906.5218688293972
 20
1145.89402346465
 30
0.0
  0
VERTEX
  5
6EB3
  8
0
 10
906.5918357662106
 20
1145.989697279309
 30
0.0
  0
VERTEX
  5
6EB4
  8
0
 10
906.6676684661127
 20
1146.080626318716
 30
0.0
  0
VERTEX
  5
6EB5
  8
0
 10
906.7490811326996
 20
1146.166535885356
 30
0.0
  0
VERTEX
  5
6EB6
  8
0
 10
906.8357879695675
 20
1146.247151281716
 30
0.0
  0
VERTEX
  5
6EB7
  8
0
 10
906.9275031803122
 20
1146.32219781028
 30
0.0
  0
VERTEX
  5
6EB8
  8
0
 10
907.0239409685297
 20
1146.391400773534
 30
0.0
  0
VERTEX
  5
6EB9
  8
0
 10
907.1248155378156
 20
1146.454485473964
 30
0.0
  0
VERTEX
  5
6EBA
  8
0
 10
907.2298410917663
 20
1146.511177214054
 30
0.0
  0
VERTEX
  5
6EBB
  8
0
 10
907.3387318339776
 20
1146.561201296291
 30
0.0
  0
VERTEX
  5
6EBC
  8
0
 10
907.4512019680453
 20
1146.604283023159
 30
0.0
  0
VERTEX
  5
6EBD
  8
0
 10
907.5669656975656
 20
1146.640147697145
 30
0.0
  0
VERTEX
  5
6EBE
  8
0
 10
907.6857372261344
 20
1146.668520620733
 30
0.0
  0
VERTEX
  5
6EBF
  8
0
 10
907.8072307573475
 20
1146.68912709641
 30
0.0
  0
VERTEX
  5
6EC0
  8
0
 10
907.9311604948009
 20
1146.70169242666
 30
0.0
  0
VERTEX
  5
6EC1
  8
0
 10
908.0572406420906
 20
1146.705941913969
 30
0.0
  0
SEQEND
  5
726C
  8
0
  0
POLYLINE
  5
6956
  8
0
 10
0.0
 20
0.0
 30
0.0
 66
     1
 70
     8
  0
VERTEX
  5
6EC2
  8
0
 10
906.2032821437483
 20
848.5535074519725
 30
0.0
 70
    32
  0
VERTEX
  5
6EC3
  8
0
 10
906.2032821437482
 20
850.0539261681113
 30
0.0
 70
    32
  0
VERTEX
  5
6EC4
  8
0
 10
906.2032821437482
 20
854.3837058918263
 30
0.0
 70
    32
  0
VERTEX
  5
6EC5
  8
0
 10
906.2032821437482
 20
861.2856319860647
 30
0.0
 70
    32
  0
VERTEX
  5
6EC6
  8
0
 10
906.2032821437483
 20
870.5024898137747
 30
0.0
 70
    32
  0
VERTEX
  5
6EC7
  8
0
 10
906.2032821437483
 20
881.7770647379035
 30
0.0
 70
    32
  0
VERTEX
  5
6EC8
  8
0
 10
906.2032821437483
 20
894.852142121399
 30
0.0
 70
    32
  0
VERTEX
  5
6EC9
  8
0
 10
906.2032821437483
 20
909.4705073272087
 30
0.0
 70
    32
  0
VERTEX
  5
6ECA
  8
0
 10
906.2032821437481
 20
925.3749457182802
 30
0.0
 70
    32
  0
VERTEX
  5
6ECB
  8
0
 10
906.2032821437482
 20
942.3082426575612
 30
0.0
 70
    32
  0
VERTEX
  5
6ECC
  8
0
 10
906.2032821437482
 20
960.0131835079994
 30
0.0
 70
    32
  0
VERTEX
  5
6ECD
  8
0
 10
906.2032821437481
 20
978.2325536325421
 30
0.0
 70
    32
  0
VERTEX
  5
6ECE
  8
0
 10
906.203282143748
 20
996.7091383941375
 30
0.0
 70
    32
  0
VERTEX
  5
6ECF
  8
0
 10
906.2032821437481
 20
1015.185723155733
 30
0.0
 70
    32
  0
VERTEX
  5
6ED0
  8
0
 10
906.203282143748
 20
1033.405093280276
 30
0.0
 70
    32
  0
VERTEX
  5
6ED1
  8
0
 10
906.2032821437481
 20
1051.110034130714
 30
0.0
 70
    32
  0
VERTEX
  5
6ED2
  8
0
 10
906.2032821437479
 20
1068.043331069995
 30
0.0
 70
    32
  0
VERTEX
  5
6ED3
  8
0
 10
906.2032821437479
 20
1083.947769461067
 30
0.0
 70
    32
  0
VERTEX
  5
6ED4
  8
0
 10
906.203282143748
 20
1098.566134666876
 30
0.0
 70
    32
  0
VERTEX
  5
6ED5
  8
0
 10
906.2032821437479
 20
1111.641212050372
 30
0.0
 70
    32
  0
VERTEX
  5
6ED6
  8
0
 10
906.2032821437479
 20
1122.915786974501
 30
0.0
 70
    32
  0
VERTEX
  5
6ED7
  8
0
 10
906.2032821437479
 20
1132.132644802211
 30
0.0
 70
    32
  0
VERTEX
  5
6ED8
  8
0
 10
906.2032821437479
 20
1139.03457089645
 30
0.0
 70
    32
  0
VERTEX
  5
6ED9
  8
0
 10
906.2032821437479
 20
1143.364350620165
 30
0.0
 70
    32
  0
VERTEX
  5
6EDA
  8
0
 10
906.2032821437479
 20
1144.864769336304
 30
0.0
 70
    32
  0
SEQEND
  5
726D
  8
0
  0
POLYLINE
  5
6957
  8
0
 66
     1
 10
0.0
 20
0.0
 30
0.0
  0
VERTEX
  5
6EDB
  8
0
 10
954.4317749420206
 20
853.2139755391862
 30
0.0
  0
VERTEX
  5
6EDC
  8
0
 10
954.4275245298045
 20
853.0864275637631
 30
0.0
  0
VERTEX
  5
6EDD
  8
0
 10
954.4149527252024
 20
852.9612797231893
 30
0.0
  0
VERTEX
  5
6EDE
  8
0
 10
954.3943286762845
 20
852.8388011655353
 30
0.0
  0
VERTEX
  5
6EDF
  8
0
 10
954.3659215311201
 20
852.7192610388702
 30
0.0
  0
VERTEX
  5
6EE0
  8
0
 10
954.3300004377794
 20
852.6029284912642
 30
0.0
  0
VERTEX
  5
6EE1
  8
0
 10
954.2868345443324
 20
852.4900726707868
 30
0.0
  0
VERTEX
  5
6EE2
  8
0
 10
954.2366929988486
 20
852.3809627255084
 30
0.0
  0
VERTEX
  5
6EE3
  8
0
 10
954.1798449493979
 20
852.2758678034986
 30
0.0
  0
VERTEX
  5
6EE4
  8
0
 10
954.1165595440503
 20
852.175057052827
 30
0.0
  0
VERTEX
  5
6EE5
  8
0
 10
954.0471059308753
 20
852.0787996215637
 30
0.0
  0
VERTEX
  5
6EE6
  8
0
 10
953.9717532579431
 20
851.9873646577782
 30
0.0
  0
VERTEX
  5
6EE7
  8
0
 10
953.8907706733233
 20
851.9010213095409
 30
0.0
  0
VERTEX
  5
6EE8
  8
0
 10
953.8044273250857
 20
851.820038724921
 30
0.0
  0
VERTEX
  5
6EE9
  8
0
 10
953.7129923613005
 20
851.7446860519887
 30
0.0
  0
VERTEX
  5
6EEA
  8
0
 10
953.6167349300371
 20
851.6752324388137
 30
0.0
  0
VERTEX
  5
6EEB
  8
0
 10
953.5159241793657
 20
851.6119470334661
 30
0.0
  0
VERTEX
  5
6EEC
  8
0
 10
953.4108292573558
 20
851.5550989840153
 30
0.0
  0
VERTEX
  5
6EED
  8
0
 10
953.3017193120772
 20
851.5049574385316
 30
0.0
  0
VERTEX
  5
6EEE
  8
0
 10
953.1888634916002
 20
851.4617915450845
 30
0.0
  0
VERTEX
  5
6EEF
  8
0
 10
953.0725309439939
 20
851.4258704517437
 30
0.0
  0
VERTEX
  5
6EF0
  8
0
 10
952.952990817329
 20
851.3974633065798
 30
0.0
  0
VERTEX
  5
6EF1
  8
0
 10
952.8305122596747
 20
851.3768392576615
 30
0.0
  0
VERTEX
  5
6EF2
  8
0
 10
952.705364419101
 20
851.3642674530594
 30
0.0
  0
VERTEX
  5
6EF3
  8
0
 10
952.5778164436779
 20
851.3600170408432
 30
0.0
  0
SEQEND
  5
726E
  8
0
  0
POLYLINE
  5
6958
  8
0
 10
0.0
 20
0.0
 30
0.0
 66
     1
 70
     8
  0
VERTEX
  5
6EF4
  8
0
 10
908.0572406420906
 20
1146.705941913969
 30
0.0
 70
    32
  0
VERTEX
  5
6EF5
  8
0
 10
908.1444825379222
 20
1146.705941913969
 30
0.0
 70
    32
  0
VERTEX
  5
6EF6
  8
0
 10
908.3962377230356
 20
1146.705941913969
 30
0.0
 70
    32
  0
VERTEX
  5
6EF7
  8
0
 10
908.7975504438604
 20
1146.705941913969
 30
0.0
 70
    32
  0
VERTEX
  5
6EF8
  8
0
 10
909.3334649468247
 20
1146.705941913968
 30
0.0
 70
    32
  0
VERTEX
  5
6EF9
  8
0
 10
909.9890254783581
 20
1146.705941913969
 30
0.0
 70
    32
  0
VERTEX
  5
6EFA
  8
0
 10
910.7492762848892
 20
1146.705941913969
 30
0.0
 70
    32
  0
VERTEX
  5
6EFB
  8
0
 10
911.599261612847
 20
1146.705941913969
 30
0.0
 70
    32
  0
VERTEX
  5
6EFC
  8
0
 10
912.5240257086602
 20
1146.705941913969
 30
0.0
 70
    32
  0
VERTEX
  5
6EFD
  8
0
 10
913.5086128187579
 20
1146.705941913969
 30
0.0
 70
    32
  0
VERTEX
  5
6EFE
  8
0
 10
914.5380671895689
 20
1146.705941913969
 30
0.0
 70
    32
  0
VERTEX
  5
6EFF
  8
0
 10
915.597433067522
 20
1146.705941913969
 30
0.0
 70
    32
  0
VERTEX
  5
6F00
  8
0
 10
916.6717546990463
 20
1146.705941913969
 30
0.0
 70
    32
  0
VERTEX
  5
6F01
  8
0
 10
917.7460763305705
 20
1146.705941913968
 30
0.0
 70
    32
  0
VERTEX
  5
6F02
  8
0
 10
918.8054422085237
 20
1146.705941913969
 30
0.0
 70
    32
  0
VERTEX
  5
6F03
  8
0
 10
919.8348965793347
 20
1146.705941913969
 30
0.0
 70
    32
  0
VERTEX
  5
6F04
  8
0
 10
920.8194836894324
 20
1146.705941913969
 30
0.0
 70
    32
  0
VERTEX
  5
6F05
  8
0
 10
921.7442477852455
 20
1146.705941913969
 30
0.0
 70
    32
  0
VERTEX
  5
6F06
  8
0
 10
922.5942331132034
 20
1146.705941913969
 30
0.0
 70
    32
  0
VERTEX
  5
6F07
  8
0
 10
923.3544839197343
 20
1146.705941913969
 30
0.0
 70
    32
  0
VERTEX
  5
6F08
  8
0
 10
924.0100444512677
 20
1146.705941913969
 30
0.0
 70
    32
  0
VERTEX
  5
6F09
  8
0
 10
924.5459589542323
 20
1146.705941913969
 30
0.0
 70
    32
  0
VERTEX
  5
6F0A
  8
0
 10
924.9472716750568
 20
1146.705941913969
 30
0.0
 70
    32
  0
VERTEX
  5
6F0B
  8
0
 10
925.1990268601704
 20
1146.705941913969
 30
0.0
 70
    32
  0
VERTEX
  5
6F0C
  8
0
 10
925.2862687560018
 20
1146.705941913969
 30
0.0
 70
    32
  0
SEQEND
  5
726F
  8
0
  0
POLYLINE
  5
6959
  8
0
 66
     1
 10
0.0
 20
0.0
 30
0.0
  0
VERTEX
  5
6F0D
  8
0
 10
927.1338342940057
 20
851.3600170408432
 30
0.0
  0
VERTEX
  5
6F0E
  8
0
 10
927.0070526044102
 20
851.3642674530594
 30
0.0
  0
VERTEX
  5
6F0F
  8
0
 10
926.88260723105
 20
851.3768392576616
 30
0.0
  0
VERTEX
  5
6F10
  8
0
 10
926.7607700967167
 20
851.3974633065797
 30
0.0
  0
VERTEX
  5
6F11
  8
0
 10
926.641813124203
 20
851.4258704517438
 30
0.0
  0
VERTEX
  5
6F12
  8
0
 10
926.5260082363011
 20
851.4617915450843
 30
0.0
  0
VERTEX
  5
6F13
  8
0
 10
926.4136273558028
 20
851.5049574385316
 30
0.0
  0
VERTEX
  5
6F14
  8
0
 10
926.3049424055006
 20
851.5550989840154
 30
0.0
  0
VERTEX
  5
6F15
  8
0
 10
926.2002253081866
 20
851.6119470334661
 30
0.0
  0
VERTEX
  5
6F16
  8
0
 10
926.0997479866531
 20
851.6752324388137
 30
0.0
  0
VERTEX
  5
6F17
  8
0
 10
926.0037823636923
 20
851.7446860519888
 30
0.0
  0
VERTEX
  5
6F18
  8
0
 10
925.9126003620963
 20
851.820038724921
 30
0.0
  0
VERTEX
  5
6F19
  8
0
 10
925.8264739046575
 20
851.9010213095409
 30
0.0
  0
VERTEX
  5
6F1A
  8
0
 10
925.7456749141678
 20
851.9873646577782
 30
0.0
  0
VERTEX
  5
6F1B
  8
0
 10
925.6704753134195
 20
852.0787996215636
 30
0.0
  0
VERTEX
  5
6F1C
  8
0
 10
925.601147025205
 20
852.175057052827
 30
0.0
  0
VERTEX
  5
6F1D
  8
0
 10
925.5379619723165
 20
852.2758678034985
 30
0.0
  0
VERTEX
  5
6F1E
  8
0
 10
925.4811920775455
 20
852.3809627255084
 30
0.0
  0
VERTEX
  5
6F1F
  8
0
 10
925.4311092636854
 20
852.490072670787
 30
0.0
  0
VERTEX
  5
6F20
  8
0
 10
925.3879854535273
 20
852.602928491264
 30
0.0
  0
VERTEX
  5
6F21
  8
0
 10
925.3520925698642
 20
852.7192610388702
 30
0.0
  0
VERTEX
  5
6F22
  8
0
 10
925.323702535488
 20
852.8388011655352
 30
0.0
  0
VERTEX
  5
6F23
  8
0
 10
925.3030872731907
 20
852.9612797231895
 30
0.0
  0
VERTEX
  5
6F24
  8
0
 10
925.2905187057648
 20
853.086427563763
 30
0.0
  0
VERTEX
  5
6F25
  8
0
 10
925.2862687560023
 20
853.2139755391862
 30
0.0
  0
SEQEND
  5
7270
  8
0
  0
POLYLINE
  5
695A
  8
0
 10
0.0
 20
0.0
 30
0.0
 66
     1
 70
     8
  0
VERTEX
  5
6F26
  8
0
 10
925.2862687560023
 20
856.4871712328123
 30
0.0
 70
    32
  0
VERTEX
  5
6F27
  8
0
 10
925.4338516142938
 20
856.4871712328123
 30
0.0
 70
    32
  0
VERTEX
  5
6F28
  8
0
 10
925.8597335767921
 20
856.4871712328122
 30
0.0
 70
    32
  0
VERTEX
  5
6F29
  8
0
 10
926.5386147249328
 20
856.4871712328124
 30
0.0
 70
    32
  0
VERTEX
  5
6F2A
  8
0
 10
927.4451951401518
 20
856.4871712328121
 30
0.0
 70
    32
  0
VERTEX
  5
6F2B
  8
0
 10
928.5541749038848
 20
856.4871712328122
 30
0.0
 70
    32
  0
VERTEX
  5
6F2C
  8
0
 10
929.8402540975677
 20
856.4871712328123
 30
0.0
 70
    32
  0
VERTEX
  5
6F2D
  8
0
 10
931.2781328026362
 20
856.4871712328124
 30
0.0
 70
    32
  0
VERTEX
  5
6F2E
  8
0
 10
932.8425111005256
 20
856.4871712328123
 30
0.0
 70
    32
  0
VERTEX
  5
6F2F
  8
0
 10
934.5080890726722
 20
856.4871712328122
 30
0.0
 70
    32
  0
VERTEX
  5
6F30
  8
0
 10
936.2495668005116
 20
856.4871712328122
 30
0.0
 70
    32
  0
VERTEX
  5
6F31
  8
0
 10
938.0416443654796
 20
856.4871712328123
 30
0.0
 70
    32
  0
VERTEX
  5
6F32
  8
0
 10
939.8590218490117
 20
856.4871712328123
 30
0.0
 70
    32
  0
VERTEX
  5
6F33
  8
0
 10
941.6763993325436
 20
856.4871712328122
 30
0.0
 70
    32
  0
VERTEX
  5
6F34
  8
0
 10
943.4684768975117
 20
856.4871712328122
 30
0.0
 70
    32
  0
VERTEX
  5
6F35
  8
0
 10
945.2099546253509
 20
856.4871712328123
 30
0.0
 70
    32
  0
VERTEX
  5
6F36
  8
0
 10
946.8755325974977
 20
856.4871712328124
 30
0.0
 70
    32
  0
VERTEX
  5
6F37
  8
0
 10
948.4399108953871
 20
856.4871712328123
 30
0.0
 70
    32
  0
VERTEX
  5
6F38
  8
0
 10
949.8777896004553
 20
856.4871712328124
 30
0.0
 70
    32
  0
VERTEX
  5
6F39
  8
0
 10
951.1638687941382
 20
856.4871712328123
 30
0.0
 70
    32
  0
VERTEX
  5
6F3A
  8
0
 10
952.2728485578713
 20
856.4871712328122
 30
0.0
 70
    32
  0
VERTEX
  5
6F3B
  8
0
 10
953.1794289730904
 20
856.4871712328124
 30
0.0
 70
    32
  0
VERTEX
  5
6F3C
  8
0
 10
953.8583101212309
 20
856.4871712328122
 30
0.0
 70
    32
  0
VERTEX
  5
6F3D
  8
0
 10
954.2841920837292
 20
856.4871712328122
 30
0.0
 70
    32
  0
VERTEX
  5
6F3E
  8
0
 10
954.4317749420206
 20
856.4871712328123
 30
0.0
 70
    32
  0
SEQEND
  5
7271
  8
0
  0
POLYLINE
  5
695B
  8
0
 10
0.0
 20
0.0
 30
0.0
 66
     1
 70
     8
  0
VERTEX
  5
6F3F
  8
0
 10
952.5778164436779
 20
851.3600170408432
 30
0.0
 70
    32
  0
VERTEX
  5
6F40
  8
0
 10
952.4489768349916
 20
851.3600170408432
 30
0.0
 70
    32
  0
VERTEX
  5
6F41
  8
0
 10
952.0771825356403
 20
851.3600170408433
 30
0.0
 70
    32
  0
VERTEX
  5
6F42
  8
0
 10
951.4845203356841
 20
851.3600170408433
 30
0.0
 70
    32
  0
VERTEX
  5
6F43
  8
0
 10
950.6930770251836
 20
851.3600170408432
 30
0.0
 70
    32
  0
VERTEX
  5
6F44
  8
0
 10
949.7249393941994
 20
851.3600170408431
 30
0.0
 70
    32
  0
VERTEX
  5
6F45
  8
0
 10
948.6021942327915
 20
851.3600170408432
 30
0.0
 70
    32
  0
VERTEX
  5
6F46
  8
0
 10
947.3469283310211
 20
851.3600170408433
 30
0.0
 70
    32
  0
VERTEX
  5
6F47
  8
0
 10
945.9812284789482
 20
851.3600170408431
 30
0.0
 70
    32
  0
VERTEX
  5
6F48
  8
0
 10
944.5271814666332
 20
851.3600170408432
 30
0.0
 70
    32
  0
VERTEX
  5
6F49
  8
0
 10
943.0068740841369
 20
851.3600170408433
 30
0.0
 70
    32
  0
VERTEX
  5
6F4A
  8
0
 10
941.4423931215197
 20
851.3600170408433
 30
0.0
 70
    32
  0
VERTEX
  5
6F4B
  8
0
 10
939.8558253688418
 20
851.3600170408432
 30
0.0
 70
    32
  0
VERTEX
  5
6F4C
  8
0
 10
938.2692576161639
 20
851.3600170408432
 30
0.0
 70
    32
  0
VERTEX
  5
6F4D
  8
0
 10
936.7047766535468
 20
851.3600170408432
 30
0.0
 70
    32
  0
VERTEX
  5
6F4E
  8
0
 10
935.1844692710506
 20
851.3600170408431
 30
0.0
 70
    32
  0
VERTEX
  5
6F4F
  8
0
 10
933.7304222587356
 20
851.3600170408431
 30
0.0
 70
    32
  0
VERTEX
  5
6F50
  8
0
 10
932.3647224066626
 20
851.3600170408431
 30
0.0
 70
    32
  0
VERTEX
  5
6F51
  8
0
 10
931.109456504892
 20
851.3600170408432
 30
0.0
 70
    32
  0
VERTEX
  5
6F52
  8
0
 10
929.9867113434843
 20
851.3600170408431
 30
0.0
 70
    32
  0
VERTEX
  5
6F53
  8
0
 10
929.0185737125
 20
851.3600170408431
 30
0.0
 70
    32
  0
VERTEX
  5
6F54
  8
0
 10
928.2271304019996
 20
851.3600170408433
 30
0.0
 70
    32
  0
VERTEX
  5
6F55
  8
0
 10
927.6344682020433
 20
851.3600170408433
 30
0.0
 70
    32
  0
VERTEX
  5
6F56
  8
0
 10
927.2626739026919
 20
851.3600170408432
 30
0.0
 70
    32
  0
VERTEX
  5
6F57
  8
0
 10
927.1338342940057
 20
851.3600170408432
 30
0.0
 70
    32
  0
SEQEND
  5
7272
  8
0
  0
POLYLINE
  5
695C
  8
0
 10
0.0
 20
0.0
 30
0.0
 66
     1
 70
     8
  0
VERTEX
  5
6F58
  8
0
 10
925.2862687560023
 20
853.2139755391862
 30
0.0
 70
    32
  0
VERTEX
  5
6F59
  8
0
 10
925.2862687560023
 20
853.230549880806
 30
0.0
 70
    32
  0
VERTEX
  5
6F5A
  8
0
 10
925.2862687560023
 20
853.278378695195
 30
0.0
 70
    32
  0
VERTEX
  5
6F5B
  8
0
 10
925.2862687560024
 20
853.3546206666467
 30
0.0
 70
    32
  0
VERTEX
  5
6F5C
  8
0
 10
925.2862687560022
 20
853.4564344794547
 30
0.0
 70
    32
  0
VERTEX
  5
6F5D
  8
0
 10
925.2862687560022
 20
853.5809788179131
 30
0.0
 70
    32
  0
VERTEX
  5
6F5E
  8
0
 10
925.2862687560022
 20
853.7254123663153
 30
0.0
 70
    32
  0
VERTEX
  5
6F5F
  8
0
 10
925.2862687560024
 20
853.8868938089552
 30
0.0
 70
    32
  0
VERTEX
  5
6F60
  8
0
 10
925.2862687560023
 20
854.0625818301263
 30
0.0
 70
    32
  0
VERTEX
  5
6F61
  8
0
 10
925.2862687560022
 20
854.2496351141225
 30
0.0
 70
    32
  0
VERTEX
  5
6F62
  8
0
 10
925.2862687560023
 20
854.4452123452377
 30
0.0
 70
    32
  0
VERTEX
  5
6F63
  8
0
 10
925.2862687560023
 20
854.6464722077654
 30
0.0
 70
    32
  0
VERTEX
  5
6F64
  8
0
 10
925.2862687560023
 20
854.8505733859993
 30
0.0
 70
    32
  0
VERTEX
  5
6F65
  8
0
 10
925.2862687560022
 20
855.0546745642332
 30
0.0
 70
    32
  0
VERTEX
  5
6F66
  8
0
 10
925.2862687560023
 20
855.2559344267609
 30
0.0
 70
    32
  0
VERTEX
  5
6F67
  8
0
 10
925.2862687560023
 20
855.4515116578759
 30
0.0
 70
    32
  0
VERTEX
  5
6F68
  8
0
 10
925.2862687560023
 20
855.6385649418723
 30
0.0
 70
    32
  0
VERTEX
  5
6F69
  8
0
 10
925.2862687560023
 20
855.8142529630435
 30
0.0
 70
    32
  0
VERTEX
  5
6F6A
  8
0
 10
925.2862687560023
 20
855.9757344056833
 30
0.0
 70
    32
  0
VERTEX
  5
6F6B
  8
0
 10
925.2862687560023
 20
856.1201679540854
 30
0.0
 70
    32
  0
VERTEX
  5
6F6C
  8
0
 10
925.2862687560023
 20
856.2447122925437
 30
0.0
 70
    32
  0
VERTEX
  5
6F6D
  8
0
 10
925.2862687560023
 20
856.3465261053518
 30
0.0
 70
    32
  0
VERTEX
  5
6F6E
  8
0
 10
925.2862687560022
 20
856.4227680768034
 30
0.0
 70
    32
  0
VERTEX
  5
6F6F
  8
0
 10
925.2862687560023
 20
856.4705968911924
 30
0.0
 70
    32
  0
VERTEX
  5
6F70
  8
0
 10
925.2862687560023
 20
856.4871712328123
 30
0.0
 70
    32
  0
SEQEND
  5
7273
  8
0
  0
POLYLINE
  5
695D
  8
0
 10
0.0
 20
0.0
 30
0.0
 66
     1
 70
     8
  0
VERTEX
  5
6F71
  8
0
 10
949.6690194893818
 20
851.3600170408432
 30
0.0
 70
    32
  0
VERTEX
  5
6F72
  8
0
 10
949.6690194893818
 20
851.3589164009702
 30
0.0
 70
    32
  0
VERTEX
  5
6F73
  8
0
 10
949.6690194893818
 20
851.3557402687645
 30
0.0
 70
    32
  0
VERTEX
  5
6F74
  8
0
 10
949.6690194893819
 20
851.3506773253479
 30
0.0
 70
    32
  0
VERTEX
  5
6F75
  8
0
 10
949.6690194893819
 20
851.343916251841
 30
0.0
 70
    32
  0
VERTEX
  5
6F76
  8
0
 10
949.6690194893819
 20
851.3356457293653
 30
0.0
 70
    32
  0
VERTEX
  5
6F77
  8
0
 10
949.6690194893818
 20
851.3260544390416
 30
0.0
 70
    32
  0
VERTEX
  5
6F78
  8
0
 10
949.6690194893818
 20
851.3153310619914
 30
0.0
 70
    32
  0
VERTEX
  5
6F79
  8
0
 10
949.6690194893818
 20
851.3036642793356
 30
0.0
 70
    32
  0
VERTEX
  5
6F7A
  8
0
 10
949.6690194893818
 20
851.2912427721951
 30
0.0
 70
    32
  0
VERTEX
  5
6F7B
  8
0
 10
949.6690194893819
 20
851.2782552216913
 30
0.0
 70
    32
  0
VERTEX
  5
6F7C
  8
0
 10
949.6690194893818
 20
851.2648903089455
 30
0.0
 70
    32
  0
VERTEX
  5
6F7D
  8
0
 10
949.6690194893818
 20
851.2513367150783
 30
0.0
 70
    32
  0
VERTEX
  5
6F7E
  8
0
 10
949.6690194893818
 20
851.2377831212112
 30
0.0
 70
    32
  0
VERTEX
  5
6F7F
  8
0
 10
949.6690194893818
 20
851.2244182084652
 30
0.0
 70
    32
  0
VERTEX
  5
6F80
  8
0
 10
949.6690194893818
 20
851.2114306579615
 30
0.0
 70
    32
  0
VERTEX
  5
6F81
  8
0
 10
949.6690194893818
 20
851.1990091508211
 30
0.0
 70
    32
  0
VERTEX
  5
6F82
  8
0
 10
949.6690194893818
 20
851.1873423681652
 30
0.0
 70
    32
  0
VERTEX
  5
6F83
  8
0
 10
949.6690194893818
 20
851.1766189911149
 30
0.0
 70
    32
  0
VERTEX
  5
6F84
  8
0
 10
949.6690194893818
 20
851.1670277007913
 30
0.0
 70
    32
  0
VERTEX
  5
6F85
  8
0
 10
949.6690194893818
 20
851.1587571783156
 30
0.0
 70
    32
  0
VERTEX
  5
6F86
  8
0
 10
949.6690194893818
 20
851.1519961048089
 30
0.0
 70
    32
  0
VERTEX
  5
6F87
  8
0
 10
949.6690194893819
 20
851.1469331613921
 30
0.0
 70
    32
  0
VERTEX
  5
6F88
  8
0
 10
949.6690194893818
 20
851.1437570291866
 30
0.0
 70
    32
  0
VERTEX
  5
6F89
  8
0
 10
949.6690194893818
 20
851.1426563893134
 30
0.0
 70
    32
  0
SEQEND
  5
7274
  8
0
  0
POLYLINE
  5
695E
  8
0
 66
     1
 10
0.0
 20
0.0
 30
0.0
  0
VERTEX
  5
6F8A
  8
0
 10
949.6690194893818
 20
851.1426563893134
 30
0.0
  0
VERTEX
  5
6F8B
  8
0
 10
949.6678679795986
 20
851.1086378306109
 30
0.0
  0
VERTEX
  5
6F8C
  8
0
 10
949.664468944696
 20
851.0753490238911
 30
0.0
  0
VERTEX
  5
6F8D
  8
0
 10
949.6589056263452
 20
851.0428537877694
 30
0.0
  0
VERTEX
  5
6F8E
  8
0
 10
949.6512612662174
 20
851.0112159408595
 30
0.0
  0
VERTEX
  5
6F8F
  8
0
 10
949.6416191059839
 20
850.9804993017765
 30
0.0
  0
VERTEX
  5
6F90
  8
0
 10
949.6300623873152
 20
850.9507676891346
 30
0.0
  0
VERTEX
  5
6F91
  8
0
 10
949.6166743518829
 20
850.9220849215484
 30
0.0
  0
VERTEX
  5
6F92
  8
0
 10
949.6015382413578
 20
850.8945148176322
 30
0.0
  0
VERTEX
  5
6F93
  8
0
 10
949.584737297411
 20
850.8681211960005
 30
0.0
  0
VERTEX
  5
6F94
  8
0
 10
949.5663547617136
 20
850.8429678752682
 30
0.0
  0
VERTEX
  5
6F95
  8
0
 10
949.5464738759367
 20
850.8191186740494
 30
0.0
  0
VERTEX
  5
6F96
  8
0
 10
949.5251778817517
 20
850.7966374109587
 30
0.0
  0
VERTEX
  5
6F97
  8
0
 10
949.502550020829
 20
850.7755879046108
 30
0.0
  0
VERTEX
  5
6F98
  8
0
 10
949.4786735348403
 20
850.7560339736198
 30
0.0
  0
VERTEX
  5
6F99
  8
0
 10
949.4536316654562
 20
850.7380394366003
 30
0.0
  0
VERTEX
  5
6F9A
  8
0
 10
949.4275076543483
 20
850.7216681121672
 30
0.0
  0
VERTEX
  5
6F9B
  8
0
 10
949.4003847431875
 20
850.7069838189344
 30
0.0
  0
VERTEX
  5
6F9C
  8
0
 10
949.3723461736445
 20
850.694050375517
 30
0.0
  0
VERTEX
  5
6F9D
  8
0
 10
949.3434751873908
 20
850.6829316005291
 30
0.0
  0
VERTEX
  5
6F9E
  8
0
 10
949.3138550260973
 20
850.6736913125851
 30
0.0
  0
VERTEX
  5
6F9F
  8
0
 10
949.2835689314353
 20
850.6663933303
 30
0.0
  0
VERTEX
  5
6FA0
  8
0
 10
949.2527001450756
 20
850.6611014722878
 30
0.0
  0
VERTEX
  5
6FA1
  8
0
 10
949.2213319086893
 20
850.657879557163
 30
0.0
  0
VERTEX
  5
6FA2
  8
0
 10
949.1895474639477
 20
850.6567914035405
 30
0.0
  0
SEQEND
  5
7275
  8
0
  0
POLYLINE
  5
695F
  8
0
 10
0.0
 20
0.0
 30
0.0
 66
     1
 70
     8
  0
VERTEX
  5
6FA3
  8
0
 10
949.1895474639477
 20
850.6567914035405
 30
0.0
 70
    32
  0
VERTEX
  5
6FA4
  8
0
 10
949.0950866654184
 20
850.6567914035404
 30
0.0
 70
    32
  0
VERTEX
  5
6FA5
  8
0
 10
948.822499789663
 20
850.6567914035406
 30
0.0
 70
    32
  0
VERTEX
  5
6FA6
  8
0
 10
948.3879801164286
 20
850.6567914035404
 30
0.0
 70
    32
  0
VERTEX
  5
6FA7
  8
0
 10
947.8077209254637
 20
850.6567914035405
 30
0.0
 70
    32
  0
VERTEX
  5
6FA8
  8
0
 10
947.097915496516
 20
850.6567914035405
 30
0.0
 70
    32
  0
VERTEX
  5
6FA9
  8
0
 10
946.2747571093332
 20
850.6567914035405
 30
0.0
 70
    32
  0
VERTEX
  5
6FAA
  8
0
 10
945.3544390436632
 20
850.6567914035405
 30
0.0
 70
    32
  0
VERTEX
  5
6FAB
  8
0
 10
944.3531545792539
 20
850.6567914035404
 30
0.0
 70
    32
  0
VERTEX
  5
6FAC
  8
0
 10
943.2870969958533
 20
850.6567914035405
 30
0.0
 70
    32
  0
VERTEX
  5
6FAD
  8
0
 10
942.1724595732092
 20
850.6567914035406
 30
0.0
 70
    32
  0
VERTEX
  5
6FAE
  8
0
 10
941.025435591069
 20
850.6567914035405
 30
0.0
 70
    32
  0
VERTEX
  5
6FAF
  8
0
 10
939.8622183291811
 20
850.6567914035405
 30
0.0
 70
    32
  0
VERTEX
  5
6FB0
  8
0
 10
938.6990010672934
 20
850.6567914035404
 30
0.0
 70
    32
  0
VERTEX
  5
6FB1
  8
0
 10
937.5519770851533
 20
850.6567914035405
 30
0.0
 70
    32
  0
VERTEX
  5
6FB2
  8
0
 10
936.4373396625092
 20
850.6567914035405
 30
0.0
 70
    32
  0
VERTEX
  5
6FB3
  8
0
 10
935.3712820791085
 20
850.6567914035405
 30
0.0
 70
    32
  0
VERTEX
  5
6FB4
  8
0
 10
934.3699976146991
 20
850.6567914035404
 30
0.0
 70
    32
  0
VERTEX
  5
6FB5
  8
0
 10
933.449679549029
 20
850.6567914035405
 30
0.0
 70
    32
  0
VERTEX
  5
6FB6
  8
0
 10
932.6265211618463
 20
850.6567914035404
 30
0.0
 70
    32
  0
VERTEX
  5
6FB7
  8
0
 10
931.9167157328984
 20
850.6567914035405
 30
0.0
 70
    32
  0
VERTEX
  5
6FB8
  8
0
 10
931.3364565419337
 20
850.6567914035406
 30
0.0
 70
    32
  0
VERTEX
  5
6FB9
  8
0
 10
930.9019368686994
 20
850.6567914035404
 30
0.0
 70
    32
  0
VERTEX
  5
6FBA
  8
0
 10
930.6293499929437
 20
850.6567914035405
 30
0.0
 70
    32
  0
VERTEX
  5
6FBB
  8
0
 10
930.5348891944145
 20
850.6567914035405
 30
0.0
 70
    32
  0
SEQEND
  5
7276
  8
0
  0
POLYLINE
  5
6960
  8
0
 10
0.0
 20
0.0
 30
0.0
 66
     1
 70
     8
  0
VERTEX
  5
6FBC
  8
0
 10
930.055417168981
 20
851.1426563893134
 30
0.0
 70
    32
  0
VERTEX
  5
6FBD
  8
0
 10
930.0554171689811
 20
851.1437570291865
 30
0.0
 70
    32
  0
VERTEX
  5
6FBE
  8
0
 10
930.055417168981
 20
851.1469331613921
 30
0.0
 70
    32
  0
VERTEX
  5
6FBF
  8
0
 10
930.055417168981
 20
851.1519961048089
 30
0.0
 70
    32
  0
VERTEX
  5
6FC0
  8
0
 10
930.055417168981
 20
851.1587571783153
 30
0.0
 70
    32
  0
VERTEX
  5
6FC1
  8
0
 10
930.0554171689809
 20
851.1670277007913
 30
0.0
 70
    32
  0
VERTEX
  5
6FC2
  8
0
 10
930.055417168981
 20
851.176618991115
 30
0.0
 70
    32
  0
VERTEX
  5
6FC3
  8
0
 10
930.055417168981
 20
851.1873423681653
 30
0.0
 70
    32
  0
VERTEX
  5
6FC4
  8
0
 10
930.055417168981
 20
851.1990091508212
 30
0.0
 70
    32
  0
VERTEX
  5
6FC5
  8
0
 10
930.055417168981
 20
851.2114306579615
 30
0.0
 70
    32
  0
VERTEX
  5
6FC6
  8
0
 10
930.0554171689809
 20
851.2244182084652
 30
0.0
 70
    32
  0
VERTEX
  5
6FC7
  8
0
 10
930.055417168981
 20
851.2377831212112
 30
0.0
 70
    32
  0
VERTEX
  5
6FC8
  8
0
 10
930.055417168981
 20
851.2513367150783
 30
0.0
 70
    32
  0
VERTEX
  5
6FC9
  8
0
 10
930.055417168981
 20
851.2648903089454
 30
0.0
 70
    32
  0
VERTEX
  5
6FCA
  8
0
 10
930.0554171689809
 20
851.2782552216913
 30
0.0
 70
    32
  0
VERTEX
  5
6FCB
  8
0
 10
930.055417168981
 20
851.291242772195
 30
0.0
 70
    32
  0
VERTEX
  5
6FCC
  8
0
 10
930.055417168981
 20
851.3036642793355
 30
0.0
 70
    32
  0
VERTEX
  5
6FCD
  8
0
 10
930.055417168981
 20
851.3153310619914
 30
0.0
 70
    32
  0
VERTEX
  5
6FCE
  8
0
 10
930.055417168981
 20
851.3260544390416
 30
0.0
 70
    32
  0
VERTEX
  5
6FCF
  8
0
 10
930.055417168981
 20
851.3356457293653
 30
0.0
 70
    32
  0
VERTEX
  5
6FD0
  8
0
 10
930.055417168981
 20
851.3439162518409
 30
0.0
 70
    32
  0
VERTEX
  5
6FD1
  8
0
 10
930.055417168981
 20
851.3506773253478
 30
0.0
 70
    32
  0
VERTEX
  5
6FD2
  8
0
 10
930.055417168981
 20
851.3557402687644
 30
0.0
 70
    32
  0
VERTEX
  5
6FD3
  8
0
 10
930.0554171689809
 20
851.3589164009701
 30
0.0
 70
    32
  0
VERTEX
  5
6FD4
  8
0
 10
930.055417168981
 20
851.3600170408432
 30
0.0
 70
    32
  0
SEQEND
  5
7277
  8
0
  0
POLYLINE
  5
6961
  8
0
 10
0.0
 20
0.0
 30
0.0
 66
     1
 70
     8
  0
VERTEX
  5
6FD5
  8
0
 10
930.055417168981
 20
851.3600170408432
 30
0.0
 70
    32
  0
VERTEX
  5
6FD6
  8
0
 10
930.1547337316567
 20
851.3600170408431
 30
0.0
 70
    32
  0
VERTEX
  5
6FD7
  8
0
 10
930.4413329553777
 20
851.3600170408431
 30
0.0
 70
    32
  0
VERTEX
  5
6FD8
  8
0
 10
930.8981891436856
 20
851.3600170408432
 30
0.0
 70
    32
  0
VERTEX
  5
6FD9
  8
0
 10
931.5082766001218
 20
851.360017040843
 30
0.0
 70
    32
  0
VERTEX
  5
6FDA
  8
0
 10
932.2545696282273
 20
851.3600170408432
 30
0.0
 70
    32
  0
VERTEX
  5
6FDB
  8
0
 10
933.1200425315436
 20
851.3600170408432
 30
0.0
 70
    32
  0
VERTEX
  5
6FDC
  8
0
 10
934.087669613612
 20
851.3600170408432
 30
0.0
 70
    32
  0
VERTEX
  5
6FDD
  8
0
 10
935.1404251779738
 20
851.3600170408432
 30
0.0
 70
    32
  0
VERTEX
  5
6FDE
  8
0
 10
936.2612835281703
 20
851.3600170408432
 30
0.0
 70
    32
  0
VERTEX
  5
6FDF
  8
0
 10
937.4332189677428
 20
851.3600170408431
 30
0.0
 70
    32
  0
VERTEX
  5
6FE0
  8
0
 10
938.6392058002328
 20
851.3600170408433
 30
0.0
 70
    32
  0
VERTEX
  5
6FE1
  8
0
 10
939.8622183291814
 20
851.3600170408432
 30
0.0
 70
    32
  0
VERTEX
  5
6FE2
  8
0
 10
941.08523085813
 20
851.3600170408432
 30
0.0
 70
    32
  0
VERTEX
  5
6FE3
  8
0
 10
942.29121769062
 20
851.3600170408431
 30
0.0
 70
    32
  0
VERTEX
  5
6FE4
  8
0
 10
943.4631531301925
 20
851.3600170408432
 30
0.0
 70
    32
  0
VERTEX
  5
6FE5
  8
0
 10
944.5840114803891
 20
851.3600170408432
 30
0.0
 70
    32
  0
VERTEX
  5
6FE6
  8
0
 10
945.636767044751
 20
851.3600170408432
 30
0.0
 70
    32
  0
VERTEX
  5
6FE7
  8
0
 10
946.6043941268192
 20
851.3600170408432
 30
0.0
 70
    32
  0
VERTEX
  5
6FE8
  8
0
 10
947.4698670301356
 20
851.3600170408431
 30
0.0
 70
    32
  0
VERTEX
  5
6FE9
  8
0
 10
948.216160058241
 20
851.3600170408432
 30
0.0
 70
    32
  0
VERTEX
  5
6FEA
  8
0
 10
948.8262475146771
 20
851.3600170408432
 30
0.0
 70
    32
  0
VERTEX
  5
6FEB
  8
0
 10
949.2831037029849
 20
851.3600170408431
 30
0.0
 70
    32
  0
VERTEX
  5
6FEC
  8
0
 10
949.5697029267061
 20
851.3600170408432
 30
0.0
 70
    32
  0
VERTEX
  5
6FED
  8
0
 10
949.6690194893818
 20
851.3600170408432
 30
0.0
 70
    32
  0
SEQEND
  5
7278
  8
0
  0
POLYLINE
  5
6962
  8
0
 66
     1
 10
0.0
 20
0.0
 30
0.0
  0
VERTEX
  5
6FEE
  8
0
 10
930.5348891944145
 20
850.6567914035405
 30
0.0
  0
VERTEX
  5
6FEF
  8
0
 10
930.5023708356061
 20
850.657879557163
 30
0.0
  0
VERTEX
  5
6FF0
  8
0
 10
930.47039354766
 20
850.6611014722878
 30
0.0
  0
VERTEX
  5
6FF1
  8
0
 10
930.4390322480796
 20
850.6663933302998
 30
0.0
  0
VERTEX
  5
6FF2
  8
0
 10
930.4083618543696
 20
850.6736913125851
 30
0.0
  0
VERTEX
  5
6FF3
  8
0
 10
930.3784572840334
 20
850.682931600529
 30
0.0
  0
VERTEX
  5
6FF4
  8
0
 10
930.3493934545749
 20
850.6940503755169
 30
0.0
  0
VERTEX
  5
6FF5
  8
0
 10
930.3212452834983
 20
850.7069838189345
 30
0.0
  0
VERTEX
  5
6FF6
  8
0
 10
930.2940876883079
 20
850.7216681121671
 30
0.0
  0
VERTEX
  5
6FF7
  8
0
 10
930.2679955865071
 20
850.7380394366004
 30
0.0
  0
VERTEX
  5
6FF8
  8
0
 10
930.2430438956002
 20
850.7560339736198
 30
0.0
  0
VERTEX
  5
6FF9
  8
0
 10
930.2193075330911
 20
850.7755879046107
 30
0.0
  0
VERTEX
  5
6FFA
  8
0
 10
930.1968614164839
 20
850.7966374109589
 30
0.0
  0
VERTEX
  5
6FFB
  8
0
 10
930.1757804632822
 20
850.8191186740494
 30
0.0
  0
VERTEX
  5
6FFC
  8
0
 10
930.1561395909905
 20
850.8429678752682
 30
0.0
  0
VERTEX
  5
6FFD
  8
0
 10
930.1380137171124
 20
850.8681211960006
 30
0.0
  0
VERTEX
  5
6FFE
  8
0
 10
930.1214777591518
 20
850.8945148176322
 30
0.0
  0
VERTEX
  5
6FFF
  8
0
 10
930.106606634613
 20
850.9220849215483
 30
0.0
  0
VERTEX
  5
7000
  8
0
 10
930.0934752609996
 20
850.9507676891346
 30
0.0
  0
VERTEX
  5
7001
  8
0
 10
930.082158555816
 20
850.9804993017765
 30
0.0
  0
VERTEX
  5
7002
  8
0
 10
930.0727314365661
 20
851.0112159408595
 30
0.0
  0
VERTEX
  5
7003
  8
0
 10
930.0652688207537
 20
851.0428537877693
 30
0.0
  0
VERTEX
  5
7004
  8
0
 10
930.0598456258825
 20
851.0753490238912
 30
0.0
  0
VERTEX
  5
7005
  8
0
 10
930.0565367694571
 20
851.1086378306107
 30
0.0
  0
VERTEX
  5
7006
  8
0
 10
930.055417168981
 20
851.1426563893134
 30
0.0
  0
SEQEND
  5
7279
  8
0
  0
POLYLINE
  5
6963
  8
0
 10
0.0
 20
0.0
 30
0.0
 66
     1
 70
     8
  0
VERTEX
  5
7007
  8
0
 10
1001.236778847226
 20
887.9277501805728
 30
0.0
 70
    32
  0
VERTEX
  5
7008
  8
0
 10
1001.252479151299
 20
887.927750180573
 30
0.0
 70
    32
  0
VERTEX
  5
7009
  8
0
 10
1001.297785743054
 20
887.9277501805727
 30
0.0
 70
    32
  0
VERTEX
  5
700A
  8
0
 10
1001.370007141793
 20
887.9277501805728
 30
0.0
 70
    32
  0
VERTEX
  5
700B
  8
0
 10
1001.466451866816
 20
887.927750180573
 30
0.0
 70
    32
  0
VERTEX
  5
700C
  8
0
 10
1001.584428437426
 20
887.927750180573
 30
0.0
 70
    32
  0
VERTEX
  5
700D
  8
0
 10
1001.721245372924
 20
887.9277501805728
 30
0.0
 70
    32
  0
VERTEX
  5
700E
  8
0
 10
1001.874211192612
 20
887.927750180573
 30
0.0
 70
    32
  0
VERTEX
  5
700F
  8
0
 10
1002.040634415792
 20
887.927750180573
 30
0.0
 70
    32
  0
VERTEX
  5
7010
  8
0
 10
1002.217823561765
 20
887.9277501805728
 30
0.0
 70
    32
  0
VERTEX
  5
7011
  8
0
 10
1002.403087149833
 20
887.9277501805727
 30
0.0
 70
    32
  0
VERTEX
  5
7012
  8
0
 10
1002.593733699298
 20
887.9277501805727
 30
0.0
 70
    32
  0
VERTEX
  5
7013
  8
0
 10
1002.78707172946
 20
887.9277501805728
 30
0.0
 70
    32
  0
VERTEX
  5
7014
  8
0
 10
1002.980409759623
 20
887.9277501805728
 30
0.0
 70
    32
  0
VERTEX
  5
7015
  8
0
 10
1003.171056309088
 20
887.9277501805727
 30
0.0
 70
    32
  0
VERTEX
  5
7016
  8
0
 10
1003.356319897156
 20
887.9277501805728
 30
0.0
 70
    32
  0
VERTEX
  5
7017
  8
0
 10
1003.533509043129
 20
887.9277501805728
 30
0.0
 70
    32
  0
VERTEX
  5
7018
  8
0
 10
1003.699932266309
 20
887.927750180573
 30
0.0
 70
    32
  0
VERTEX
  5
7019
  8
0
 10
1003.852898085997
 20
887.9277501805727
 30
0.0
 70
    32
  0
VERTEX
  5
701A
  8
0
 10
1003.989715021495
 20
887.9277501805728
 30
0.0
 70
    32
  0
VERTEX
  5
701B
  8
0
 10
1004.107691592105
 20
887.927750180573
 30
0.0
 70
    32
  0
VERTEX
  5
701C
  8
0
 10
1004.204136317128
 20
887.9277501805728
 30
0.0
 70
    32
  0
VERTEX
  5
701D
  8
0
 10
1004.276357715867
 20
887.9277501805728
 30
0.0
 70
    32
  0
VERTEX
  5
701E
  8
0
 10
1004.321664307622
 20
887.9277501805727
 30
0.0
 70
    32
  0
VERTEX
  5
701F
  8
0
 10
1004.337364611695
 20
887.9277501805728
 30
0.0
 70
    32
  0
SEQEND
  5
727A
  8
0
  0
POLYLINE
  5
6964
  8
0
 66
     1
 10
0.0
 20
0.0
 30
0.0
  0
VERTEX
  5
7020
  8
0
 10
1004.337364611695
 20
887.9277501805728
 30
0.0
  0
VERTEX
  5
7021
  8
0
 10
1004.464178673052
 20
887.923499305903
 30
0.0
  0
VERTEX
  5
7022
  8
0
 10
1004.588717462065
 20
887.9109242641247
 30
0.0
  0
VERTEX
  5
7023
  8
0
 10
1004.710703506499
 20
887.8902914285859
 30
0.0
  0
VERTEX
  5
7024
  8
0
 10
1004.829859334116
 20
887.8618671726338
 30
0.0
  0
VERTEX
  5
7025
  8
0
 10
1004.945907472679
 20
887.8259178696156
 30
0.0
  0
VERTEX
  5
7026
  8
0
 10
1005.058570449951
 20
887.7827098928793
 30
0.0
  0
VERTEX
  5
7027
  8
0
 10
1005.167570793696
 20
887.7325096157718
 30
0.0
  0
VERTEX
  5
7028
  8
0
 10
1005.272631031676
 20
887.6755834116411
 30
0.0
  0
VERTEX
  5
7029
  8
0
 10
1005.373473691655
 20
887.6121976538345
 30
0.0
  0
VERTEX
  5
702A
  8
0
 10
1005.469821301396
 20
887.5426187156991
 30
0.0
  0
VERTEX
  5
702B
  8
0
 10
1005.561396388661
 20
887.467112970583
 30
0.0
  0
VERTEX
  5
702C
  8
0
 10
1005.647921481213
 20
887.3859467918329
 30
0.0
  0
VERTEX
  5
702D
  8
0
 10
1005.729119106817
 20
887.299386552797
 30
0.0
  0
VERTEX
  5
702E
  8
0
 10
1005.804711793234
 20
887.2076986268222
 30
0.0
  0
VERTEX
  5
702F
  8
0
 10
1005.874422068228
 20
887.1111493872564
 30
0.0
  0
VERTEX
  5
7030
  8
0
 10
1005.937972459562
 20
887.0100052074467
 30
0.0
  0
VERTEX
  5
7031
  8
0
 10
1005.995085494999
 20
886.9045324607409
 30
0.0
  0
VERTEX
  5
7032
  8
0
 10
1006.045483702302
 20
886.7949975204862
 30
0.0
  0
VERTEX
  5
7033
  8
0
 10
1006.088889609234
 20
886.6816667600301
 30
0.0
  0
VERTEX
  5
7034
  8
0
 10
1006.125025743558
 20
886.56480655272
 30
0.0
  0
VERTEX
  5
7035
  8
0
 10
1006.153614633038
 20
886.4446832719038
 30
0.0
  0
VERTEX
  5
7036
  8
0
 10
1006.174378805435
 20
886.3215632909285
 30
0.0
  0
VERTEX
  5
7037
  8
0
 10
1006.187040788514
 20
886.1957129831416
 30
0.0
  0
VERTEX
  5
7038
  8
0
 10
1006.191323110038
 20
886.0673987218908
 30
0.0
  0
SEQEND
  5
727B
  8
0
  0
POLYLINE
  5
6965
  8
0
 10
0.0
 20
0.0
 30
0.0
 66
     1
 70
     8
  0
VERTEX
  5
7039
  8
0
 10
1006.191323110038
 20
886.0673987218908
 30
0.0
 70
    32
  0
VERTEX
  5
703A
  8
0
 10
1006.191323110038
 20
885.9394978942728
 30
0.0
 70
    32
  0
VERTEX
  5
703B
  8
0
 10
1006.191323110038
 20
885.5704126488615
 30
0.0
 70
    32
  0
VERTEX
  5
703C
  8
0
 10
1006.191323110038
 20
884.9820688418196
 30
0.0
 70
    32
  0
VERTEX
  5
703D
  8
0
 10
1006.191323110038
 20
884.1963923293102
 30
0.0
 70
    32
  0
VERTEX
  5
703E
  8
0
 10
1006.191323110038
 20
883.2353089674964
 30
0.0
 70
    32
  0
VERTEX
  5
703F
  8
0
 10
1006.191323110038
 20
882.1207446125411
 30
0.0
 70
    32
  0
VERTEX
  5
7040
  8
0
 10
1006.191323110038
 20
880.8746251206077
 30
0.0
 70
    32
  0
VERTEX
  5
7041
  8
0
 10
1006.191323110038
 20
879.5188763478587
 30
0.0
 70
    32
  0
VERTEX
  5
7042
  8
0
 10
1006.191323110038
 20
878.0754241504578
 30
0.0
 70
    32
  0
VERTEX
  5
7043
  8
0
 10
1006.191323110038
 20
876.5661943845677
 30
0.0
 70
    32
  0
VERTEX
  5
7044
  8
0
 10
1006.191323110038
 20
875.0131129063515
 30
0.0
 70
    32
  0
VERTEX
  5
7045
  8
0
 10
1006.191323110038
 20
873.4381055719721
 30
0.0
 70
    32
  0
VERTEX
  5
7046
  8
0
 10
1006.191323110038
 20
871.8630982375928
 30
0.0
 70
    32
  0
VERTEX
  5
7047
  8
0
 10
1006.191323110038
 20
870.3100167593765
 30
0.0
 70
    32
  0
VERTEX
  5
7048
  8
0
 10
1006.191323110038
 20
868.8007869934863
 30
0.0
 70
    32
  0
VERTEX
  5
7049
  8
0
 10
1006.191323110038
 20
867.3573347960853
 30
0.0
 70
    32
  0
VERTEX
  5
704A
  8
0
 10
1006.191323110038
 20
866.0015860233364
 30
0.0
 70
    32
  0
VERTEX
  5
704B
  8
0
 10
1006.191323110038
 20
864.7554665314028
 30
0.0
 70
    32
  0
VERTEX
  5
704C
  8
0
 10
1006.191323110038
 20
863.6409021764475
 30
0.0
 70
    32
  0
VERTEX
  5
704D
  8
0
 10
1006.191323110038
 20
862.6798188146338
 30
0.0
 70
    32
  0
VERTEX
  5
704E
  8
0
 10
1006.191323110038
 20
861.8941423021245
 30
0.0
 70
    32
  0
VERTEX
  5
704F
  8
0
 10
1006.191323110038
 20
861.3057984950824
 30
0.0
 70
    32
  0
VERTEX
  5
7050
  8
0
 10
1006.191323110038
 20
860.936713249671
 30
0.0
 70
    32
  0
VERTEX
  5
7051
  8
0
 10
1006.191323110038
 20
860.8088124220532
 30
0.0
 70
    32
  0
SEQEND
  5
727C
  8
0
  0
POLYLINE
  5
6966
  8
0
 66
     1
 10
0.0
 20
0.0
 30
0.0
  0
VERTEX
  5
7052
  8
0
 10
1006.191323110038
 20
860.8088124220532
 30
0.0
  0
VERTEX
  5
7053
  8
0
 10
1006.187040788514
 20
860.6812968183907
 30
0.0
  0
VERTEX
  5
7054
  8
0
 10
1006.174378805435
 20
860.5562423934704
 30
0.0
  0
VERTEX
  5
7055
  8
0
 10
1006.153614633038
 20
860.4339127459165
 30
0.0
  0
VERTEX
  5
7056
  8
0
 10
1006.125025743558
 20
860.3145714743548
 30
0.0
  0
VERTEX
  5
7057
  8
0
 10
1006.088889609234
 20
860.1984821774098
 30
0.0
  0
VERTEX
  5
7058
  8
0
 10
1006.045483702302
 20
860.0859084537067
 30
0.0
  0
VERTEX
  5
7059
  8
0
 10
1005.995085494999
 20
859.9771139018711
 30
0.0
  0
VERTEX
  5
705A
  8
0
 10
1005.937972459562
 20
859.8723621205274
 30
0.0
  0
VERTEX
  5
705B
  8
0
 10
1005.874422068228
 20
859.7719167083011
 30
0.0
  0
VERTEX
  5
705C
  8
0
 10
1005.804711793234
 20
859.6760412638173
 30
0.0
  0
VERTEX
  5
705D
  8
0
 10
1005.729119106817
 20
859.5849993857009
 30
0.0
  0
VERTEX
  5
705E
  8
0
 10
1005.647921481213
 20
859.4990546725771
 30
0.0
  0
VERTEX
  5
705F
  8
0
 10
1005.56139638866
 20
859.4184707230711
 30
0.0
  0
VERTEX
  5
7060
  8
0
 10
1005.469821301395
 20
859.343511135808
 30
0.0
  0
VERTEX
  5
7061
  8
0
 10
1005.373473691655
 20
859.2744395094126
 30
0.0
  0
VERTEX
  5
7062
  8
0
 10
1005.272631031676
 20
859.2115194425102
 30
0.0
  0
VERTEX
  5
7063
  8
0
 10
1005.167570793696
 20
859.1550145337258
 30
0.0
  0
VERTEX
  5
7064
  8
0
 10
1005.058570449951
 20
859.1051883816847
 30
0.0
  0
VERTEX
  5
7065
  8
0
 10
1004.945907472679
 20
859.0623045850116
 30
0.0
  0
VERTEX
  5
7066
  8
0
 10
1004.829859334116
 20
859.0266267423322
 30
0.0
  0
VERTEX
  5
7067
  8
0
 10
1004.710703506499
 20
858.9984184522712
 30
0.0
  0
VERTEX
  5
7068
  8
0
 10
1004.588717462065
 20
858.9779433134535
 30
0.0
  0
VERTEX
  5
7069
  8
0
 10
1004.464178673052
 20
858.9654649245045
 30
0.0
  0
VERTEX
  5
706A
  8
0
 10
1004.337364611695
 20
858.9612468840493
 30
0.0
  0
SEQEND
  5
727D
  8
0
  0
POLYLINE
  5
6967
  8
0
 10
0.0
 20
0.0
 30
0.0
 66
     1
 70
     8
  0
VERTEX
  5
706B
  8
0
 10
1004.337364611695
 20
858.9612468840493
 30
0.0
 70
    32
  0
VERTEX
  5
706C
  8
0
 10
1004.321664307622
 20
858.9612468840493
 30
0.0
 70
    32
  0
VERTEX
  5
706D
  8
0
 10
1004.276357715867
 20
858.9612468840493
 30
0.0
 70
    32
  0
VERTEX
  5
706E
  8
0
 10
1004.204136317128
 20
858.9612468840493
 30
0.0
 70
    32
  0
VERTEX
  5
706F
  8
0
 10
1004.107691592105
 20
858.9612468840492
 30
0.0
 70
    32
  0
VERTEX
  5
7070
  8
0
 10
1003.989715021495
 20
858.9612468840493
 30
0.0
 70
    32
  0
VERTEX
  5
7071
  8
0
 10
1003.852898085997
 20
858.9612468840492
 30
0.0
 70
    32
  0
VERTEX
  5
7072
  8
0
 10
1003.699932266309
 20
858.9612468840494
 30
0.0
 70
    32
  0
VERTEX
  5
7073
  8
0
 10
1003.533509043129
 20
858.9612468840493
 30
0.0
 70
    32
  0
VERTEX
  5
7074
  8
0
 10
1003.356319897156
 20
858.9612468840493
 30
0.0
 70
    32
  0
VERTEX
  5
7075
  8
0
 10
1003.171056309088
 20
858.9612468840492
 30
0.0
 70
    32
  0
VERTEX
  5
7076
  8
0
 10
1002.980409759624
 20
858.9612468840493
 30
0.0
 70
    32
  0
VERTEX
  5
7077
  8
0
 10
1002.78707172946
 20
858.9612468840493
 30
0.0
 70
    32
  0
VERTEX
  5
7078
  8
0
 10
1002.593733699297
 20
858.9612468840493
 30
0.0
 70
    32
  0
VERTEX
  5
7079
  8
0
 10
1002.403087149833
 20
858.9612468840492
 30
0.0
 70
    32
  0
VERTEX
  5
707A
  8
0
 10
1002.217823561765
 20
858.9612468840492
 30
0.0
 70
    32
  0
VERTEX
  5
707B
  8
0
 10
1002.040634415792
 20
858.9612468840493
 30
0.0
 70
    32
  0
VERTEX
  5
707C
  8
0
 10
1001.874211192612
 20
858.9612468840493
 30
0.0
 70
    32
  0
VERTEX
  5
707D
  8
0
 10
1001.721245372924
 20
858.9612468840492
 30
0.0
 70
    32
  0
VERTEX
  5
707E
  8
0
 10
1001.584428437426
 20
858.9612468840493
 30
0.0
 70
    32
  0
VERTEX
  5
707F
  8
0
 10
1001.466451866816
 20
858.9612468840493
 30
0.0
 70
    32
  0
VERTEX
  5
7080
  8
0
 10
1001.370007141793
 20
858.9612468840494
 30
0.0
 70
    32
  0
VERTEX
  5
7081
  8
0
 10
1001.297785743054
 20
858.9612468840492
 30
0.0
 70
    32
  0
VERTEX
  5
7082
  8
0
 10
1001.252479151299
 20
858.9612468840492
 30
0.0
 70
    32
  0
VERTEX
  5
7083
  8
0
 10
1001.236778847226
 20
858.9612468840493
 30
0.0
 70
    32
  0
SEQEND
  5
727E
  8
0
  0
POLYLINE
  5
6968
  8
0
 10
0.0
 20
0.0
 30
0.0
 66
     1
 70
     8
  0
VERTEX
  5
7084
  8
0
 10
1001.236778847226
 20
858.9612468840493
 30
0.0
 70
    32
  0
VERTEX
  5
7085
  8
0
 10
1001.236778847226
 20
859.1079233330335
 30
0.0
 70
    32
  0
VERTEX
  5
7086
  8
0
 10
1001.236778847226
 20
859.5311896572447
 30
0.0
 70
    32
  0
VERTEX
  5
7087
  8
0
 10
1001.236778847226
 20
860.2059013225718
 30
0.0
 70
    32
  0
VERTEX
  5
7088
  8
0
 10
1001.236778847225
 20
861.1069137949028
 30
0.0
 70
    32
  0
VERTEX
  5
7089
  8
0
 10
1001.236778847226
 20
862.2090825401265
 30
0.0
 70
    32
  0
VERTEX
  5
708A
  8
0
 10
1001.236778847226
 20
863.4872630241312
 30
0.0
 70
    32
  0
VERTEX
  5
708B
  8
0
 10
1001.236778847226
 20
864.9163107128052
 30
0.0
 70
    32
  0
VERTEX
  5
708C
  8
0
 10
1001.236778847226
 20
866.471081072037
 30
0.0
 70
    32
  0
VERTEX
  5
708D
  8
0
 10
1001.236778847226
 20
868.1264295677149
 30
0.0
 70
    32
  0
VERTEX
  5
708E
  8
0
 10
1001.236778847226
 20
869.8572116657278
 30
0.0
 70
    32
  0
VERTEX
  5
708F
  8
0
 10
1001.236778847226
 20
871.6382828319638
 30
0.0
 70
    32
  0
VERTEX
  5
7090
  8
0
 10
1001.236778847226
 20
873.4444985323112
 30
0.0
 70
    32
  0
VERTEX
  5
7091
  8
0
 10
1001.236778847226
 20
875.2507142326588
 30
0.0
 70
    32
  0
VERTEX
  5
7092
  8
0
 10
1001.236778847226
 20
877.0317853988945
 30
0.0
 70
    32
  0
VERTEX
  5
7093
  8
0
 10
1001.236778847226
 20
878.7625674969073
 30
0.0
 70
    32
  0
VERTEX
  5
7094
  8
0
 10
1001.236778847226
 20
880.4179159925854
 30
0.0
 70
    32
  0
VERTEX
  5
7095
  8
0
 10
1001.236778847226
 20
881.9726863518172
 30
0.0
 70
    32
  0
VERTEX
  5
7096
  8
0
 10
1001.236778847226
 20
883.4017340404912
 30
0.0
 70
    32
  0
VERTEX
  5
7097
  8
0
 10
1001.236778847226
 20
884.6799145244958
 30
0.0
 70
    32
  0
VERTEX
  5
7098
  8
0
 10
1001.236778847226
 20
885.7820832697194
 30
0.0
 70
    32
  0
VERTEX
  5
7099
  8
0
 10
1001.236778847226
 20
886.6830957420505
 30
0.0
 70
    32
  0
VERTEX
  5
709A
  8
0
 10
1001.236778847226
 20
887.3578074073774
 30
0.0
 70
    32
  0
VERTEX
  5
709B
  8
0
 10
1001.236778847226
 20
887.7810737315888
 30
0.0
 70
    32
  0
VERTEX
  5
709C
  8
0
 10
1001.236778847226
 20
887.9277501805728
 30
0.0
 70
    32
  0
SEQEND
  5
727F
  8
0
  0
POLYLINE
  5
6969
  8
0
 10
0.0
 20
0.0
 30
0.0
 66
     1
 70
     8
  0
VERTEX
  5
709D
  8
0
 10
1006.191323110038
 20
883.1586017675942
 30
0.0
 70
    32
  0
VERTEX
  5
709E
  8
0
 10
1006.192423749911
 20
883.1586017675943
 30
0.0
 70
    32
  0
VERTEX
  5
709F
  8
0
 10
1006.195599882117
 20
883.1586017675941
 30
0.0
 70
    32
  0
VERTEX
  5
70A0
  8
0
 10
1006.200662825533
 20
883.1586017675942
 30
0.0
 70
    32
  0
VERTEX
  5
70A1
  8
0
 10
1006.20742389904
 20
883.1586017675942
 30
0.0
 70
    32
  0
VERTEX
  5
70A2
  8
0
 10
1006.215694421516
 20
883.1586017675943
 30
0.0
 70
    32
  0
VERTEX
  5
70A3
  8
0
 10
1006.22528571184
 20
883.1586017675942
 30
0.0
 70
    32
  0
VERTEX
  5
70A4
  8
0
 10
1006.23600908889
 20
883.1586017675943
 30
0.0
 70
    32
  0
VERTEX
  5
70A5
  8
0
 10
1006.247675871546
 20
883.1586017675942
 30
0.0
 70
    32
  0
VERTEX
  5
70A6
  8
0
 10
1006.260097378686
 20
883.1586017675943
 30
0.0
 70
    32
  0
VERTEX
  5
70A7
  8
0
 10
1006.27308492919
 20
883.1586017675942
 30
0.0
 70
    32
  0
VERTEX
  5
70A8
  8
0
 10
1006.286449841936
 20
883.1586017675943
 30
0.0
 70
    32
  0
VERTEX
  5
70A9
  8
0
 10
1006.300003435803
 20
883.1586017675943
 30
0.0
 70
    32
  0
VERTEX
  5
70AA
  8
0
 10
1006.31355702967
 20
883.1586017675942
 30
0.0
 70
    32
  0
VERTEX
  5
70AB
  8
0
 10
1006.326921942416
 20
883.1586017675941
 30
0.0
 70
    32
  0
VERTEX
  5
70AC
  8
0
 10
1006.33990949292
 20
883.1586017675943
 30
0.0
 70
    32
  0
VERTEX
  5
70AD
  8
0
 10
1006.35233100006
 20
883.1586017675943
 30
0.0
 70
    32
  0
VERTEX
  5
70AE
  8
0
 10
1006.363997782716
 20
883.1586017675943
 30
0.0
 70
    32
  0
VERTEX
  5
70AF
  8
0
 10
1006.374721159766
 20
883.1586017675941
 30
0.0
 70
    32
  0
VERTEX
  5
70B0
  8
0
 10
1006.38431245009
 20
883.1586017675941
 30
0.0
 70
    32
  0
VERTEX
  5
70B1
  8
0
 10
1006.392582972566
 20
883.1586017675942
 30
0.0
 70
    32
  0
VERTEX
  5
70B2
  8
0
 10
1006.399344046072
 20
883.1586017675941
 30
0.0
 70
    32
  0
VERTEX
  5
70B3
  8
0
 10
1006.404406989489
 20
883.1586017675942
 30
0.0
 70
    32
  0
VERTEX
  5
70B4
  8
0
 10
1006.407583121695
 20
883.1586017675941
 30
0.0
 70
    32
  0
VERTEX
  5
70B5
  8
0
 10
1006.408683761568
 20
883.1586017675942
 30
0.0
 70
    32
  0
SEQEND
  5
7280
  8
0
  0
POLYLINE
  5
696A
  8
0
 66
     1
 10
0.0
 20
0.0
 30
0.0
  0
VERTEX
  5
70B6
  8
0
 10
1006.408683761568
 20
883.1586017675942
 30
0.0
  0
VERTEX
  5
70B7
  8
0
 10
1006.441968406204
 20
883.1574817046644
 30
0.0
  0
VERTEX
  5
70B8
  8
0
 10
1006.474648161363
 20
883.1541696110628
 30
0.0
  0
VERTEX
  5
70B9
  8
0
 10
1006.506650884264
 20
883.148737629571
 30
0.0
  0
VERTEX
  5
70BA
  8
0
 10
1006.537904432126
 20
883.1412579029704
 30
0.0
  0
VERTEX
  5
70BB
  8
0
 10
1006.568336662166
 20
883.1318025740428
 30
0.0
  0
VERTEX
  5
70BC
  8
0
 10
1006.597875431603
 20
883.1204437855702
 30
0.0
  0
VERTEX
  5
70BD
  8
0
 10
1006.626448597656
 20
883.1072536803333
 30
0.0
  0
VERTEX
  5
70BE
  8
0
 10
1006.653984017543
 20
883.0923044011146
 30
0.0
  0
VERTEX
  5
70BF
  8
0
 10
1006.680409548482
 20
883.075668090695
 30
0.0
  0
VERTEX
  5
70C0
  8
0
 10
1006.705653047691
 20
883.0574168918565
 30
0.0
  0
VERTEX
  5
70C1
  8
0
 10
1006.72964237239
 20
883.0376229473806
 30
0.0
  0
VERTEX
  5
70C2
  8
0
 10
1006.752305379795
 20
883.0163584000488
 30
0.0
  0
VERTEX
  5
70C3
  8
0
 10
1006.773569927127
 20
882.993695392643
 30
0.0
  0
VERTEX
  5
70C4
  8
0
 10
1006.793363871603
 20
882.9697060679446
 30
0.0
  0
VERTEX
  5
70C5
  8
0
 10
1006.811615070442
 20
882.9444625687352
 30
0.0
  0
VERTEX
  5
70C6
  8
0
 10
1006.828251380861
 20
882.9180370377965
 30
0.0
  0
VERTEX
  5
70C7
  8
0
 10
1006.84320066008
 20
882.8905016179098
 30
0.0
  0
VERTEX
  5
70C8
  8
0
 10
1006.856390765317
 20
882.8619284518571
 30
0.0
  0
VERTEX
  5
70C9
  8
0
 10
1006.86774955379
 20
882.8323896824198
 30
0.0
  0
VERTEX
  5
70CA
  8
0
 10
1006.877204882717
 20
882.8019574523795
 30
0.0
  0
VERTEX
  5
70CB
  8
0
 10
1006.884684609318
 20
882.7707039045181
 30
0.0
  0
VERTEX
  5
70CC
  8
0
 10
1006.89011659081
 20
882.7387011816168
 30
0.0
  0
VERTEX
  5
70CD
  8
0
 10
1006.893428684411
 20
882.7060214264573
 30
0.0
  0
VERTEX
  5
70CE
  8
0
 10
1006.894548747341
 20
882.6727367818213
 30
0.0
  0
SEQEND
  5
7281
  8
0
  0
POLYLINE
  5
696B
  8
0
 66
     1
 10
0.0
 20
0.0
 30
0.0
  0
VERTEX
  5
70CF
  8
0
 10
1006.894548747341
 20
864.0308644329663
 30
0.0
  0
VERTEX
  5
70D0
  8
0
 10
1006.893428684411
 20
863.9983460741579
 30
0.0
  0
VERTEX
  5
70D1
  8
0
 10
1006.89011659081
 20
863.9663687862118
 30
0.0
  0
VERTEX
  5
70D2
  8
0
 10
1006.884684609318
 20
863.9350074866315
 30
0.0
  0
VERTEX
  5
70D3
  8
0
 10
1006.877204882717
 20
863.9043370929213
 30
0.0
  0
VERTEX
  5
70D4
  8
0
 10
1006.86774955379
 20
863.874432522585
 30
0.0
  0
VERTEX
  5
70D5
  8
0
 10
1006.856390765317
 20
863.8453686931266
 30
0.0
  0
VERTEX
  5
70D6
  8
0
 10
1006.84320066008
 20
863.8172205220502
 30
0.0
  0
VERTEX
  5
70D7
  8
0
 10
1006.828251380861
 20
863.7900629268597
 30
0.0
  0
VERTEX
  5
70D8
  8
0
 10
1006.811615070442
 20
863.7639708250588
 30
0.0
  0
VERTEX
  5
70D9
  8
0
 10
1006.793363871603
 20
863.739019134152
 30
0.0
  0
VERTEX
  5
70DA
  8
0
 10
1006.773569927127
 20
863.7152827716429
 30
0.0
  0
VERTEX
  5
70DB
  8
0
 10
1006.752305379795
 20
863.6928366550355
 30
0.0
  0
VERTEX
  5
70DC
  8
0
 10
1006.72964237239
 20
863.671755701834
 30
0.0
  0
VERTEX
  5
70DD
  8
0
 10
1006.705653047691
 20
863.6521148295421
 30
0.0
  0
VERTEX
  5
70DE
  8
0
 10
1006.680409548482
 20
863.6339889556641
 30
0.0
  0
VERTEX
  5
70DF
  8
0
 10
1006.653984017543
 20
863.6174529977035
 30
0.0
  0
VERTEX
  5
70E0
  8
0
 10
1006.626448597656
 20
863.6025818731647
 30
0.0
  0
VERTEX
  5
70E1
  8
0
 10
1006.597875431603
 20
863.5894504995515
 30
0.0
  0
VERTEX
  5
70E2
  8
0
 10
1006.568336662166
 20
863.5781337943678
 30
0.0
  0
VERTEX
  5
70E3
  8
0
 10
1006.537904432126
 20
863.5687066751178
 30
0.0
  0
VERTEX
  5
70E4
  8
0
 10
1006.506650884264
 20
863.5612440593054
 30
0.0
  0
VERTEX
  5
70E5
  8
0
 10
1006.474648161363
 20
863.5558208644344
 30
0.0
  0
VERTEX
  5
70E6
  8
0
 10
1006.441968406204
 20
863.5525120080088
 30
0.0
  0
VERTEX
  5
70E7
  8
0
 10
1006.408683761568
 20
863.5513924075327
 30
0.0
  0
SEQEND
  5
7282
  8
0
  0
POLYLINE
  5
696C
  8
0
 10
0.0
 20
0.0
 30
0.0
 66
     1
 70
     8
  0
VERTEX
  5
70E8
  8
0
 10
1006.894548747341
 20
882.6727367818213
 30
0.0
 70
    32
  0
VERTEX
  5
70E9
  8
0
 10
1006.894548747341
 20
882.578340726814
 30
0.0
 70
    32
  0
VERTEX
  5
70EA
  8
0
 10
1006.894548747341
 20
882.3059406823647
 30
0.0
 70
    32
  0
VERTEX
  5
70EB
  8
0
 10
1006.894548747341
 20
881.8717188293314
 30
0.0
 70
    32
  0
VERTEX
  5
70EC
  8
0
 10
1006.894548747341
 20
881.2918573485728
 30
0.0
 70
    32
  0
VERTEX
  5
70ED
  8
0
 10
1006.894548747341
 20
880.5825384209471
 30
0.0
 70
    32
  0
VERTEX
  5
70EE
  8
0
 10
1006.894548747341
 20
879.7599442273126
 30
0.0
 70
    32
  0
VERTEX
  5
70EF
  8
0
 10
1006.894548747341
 20
878.8402569485281
 30
0.0
 70
    32
  0
VERTEX
  5
70F0
  8
0
 10
1006.894548747341
 20
877.8396587654515
 30
0.0
 70
    32
  0
VERTEX
  5
70F1
  8
0
 10
1006.894548747341
 20
876.7743318589414
 30
0.0
 70
    32
  0
VERTEX
  5
70F2
  8
0
 10
1006.894548747341
 20
875.6604584098561
 30
0.0
 70
    32
  0
VERTEX
  5
70F3
  8
0
 10
1006.894548747341
 20
874.5142205990542
 30
0.0
 70
    32
  0
VERTEX
  5
70F4
  8
0
 10
1006.894548747341
 20
873.3518006073938
 30
0.0
 70
    32
  0
VERTEX
  5
70F5
  8
0
 10
1006.894548747341
 20
872.1893806157334
 30
0.0
 70
    32
  0
VERTEX
  5
70F6
  8
0
 10
1006.894548747341
 20
871.0431428049314
 30
0.0
 70
    32
  0
VERTEX
  5
70F7
  8
0
 10
1006.894548747341
 20
869.9292693558464
 30
0.0
 70
    32
  0
VERTEX
  5
70F8
  8
0
 10
1006.894548747341
 20
868.8639424493362
 30
0.0
 70
    32
  0
VERTEX
  5
70F9
  8
0
 10
1006.894548747341
 20
867.8633442662594
 30
0.0
 70
    32
  0
VERTEX
  5
70FA
  8
0
 10
1006.894548747341
 20
866.9436569874749
 30
0.0
 70
    32
  0
VERTEX
  5
70FB
  8
0
 10
1006.894548747341
 20
866.1210627938406
 30
0.0
 70
    32
  0
VERTEX
  5
70FC
  8
0
 10
1006.894548747341
 20
865.4117438662148
 30
0.0
 70
    32
  0
VERTEX
  5
70FD
  8
0
 10
1006.894548747341
 20
864.8318823854562
 30
0.0
 70
    32
  0
VERTEX
  5
70FE
  8
0
 10
1006.894548747341
 20
864.397660532423
 30
0.0
 70
    32
  0
VERTEX
  5
70FF
  8
0
 10
1006.894548747341
 20
864.1252604879735
 30
0.0
 70
    32
  0
VERTEX
  5
7100
  8
0
 10
1006.894548747341
 20
864.0308644329663
 30
0.0
 70
    32
  0
SEQEND
  5
7283
  8
0
  0
POLYLINE
  5
696D
  8
0
 10
0.0
 20
0.0
 30
0.0
 66
     1
 70
     8
  0
VERTEX
  5
7101
  8
0
 10
1006.408683761568
 20
863.5513924075327
 30
0.0
 70
    32
  0
VERTEX
  5
7102
  8
0
 10
1006.407583121695
 20
863.5513924075327
 30
0.0
 70
    32
  0
VERTEX
  5
7103
  8
0
 10
1006.404406989489
 20
863.5513924075327
 30
0.0
 70
    32
  0
VERTEX
  5
7104
  8
0
 10
1006.399344046073
 20
863.5513924075328
 30
0.0
 70
    32
  0
VERTEX
  5
7105
  8
0
 10
1006.392582972565
 20
863.5513924075326
 30
0.0
 70
    32
  0
VERTEX
  5
7106
  8
0
 10
1006.38431245009
 20
863.5513924075326
 30
0.0
 70
    32
  0
VERTEX
  5
7107
  8
0
 10
1006.374721159766
 20
863.5513924075326
 30
0.0
 70
    32
  0
VERTEX
  5
7108
  8
0
 10
1006.363997782716
 20
863.5513924075326
 30
0.0
 70
    32
  0
VERTEX
  5
7109
  8
0
 10
1006.35233100006
 20
863.5513924075327
 30
0.0
 70
    32
  0
VERTEX
  5
710A
  8
0
 10
1006.33990949292
 20
863.5513924075326
 30
0.0
 70
    32
  0
VERTEX
  5
710B
  8
0
 10
1006.326921942416
 20
863.5513924075327
 30
0.0
 70
    32
  0
VERTEX
  5
710C
  8
0
 10
1006.31355702967
 20
863.5513924075328
 30
0.0
 70
    32
  0
VERTEX
  5
710D
  8
0
 10
1006.300003435803
 20
863.5513924075327
 30
0.0
 70
    32
  0
VERTEX
  5
710E
  8
0
 10
1006.286449841936
 20
863.5513924075326
 30
0.0
 70
    32
  0
VERTEX
  5
710F
  8
0
 10
1006.27308492919
 20
863.5513924075326
 30
0.0
 70
    32
  0
VERTEX
  5
7110
  8
0
 10
1006.260097378686
 20
863.5513924075326
 30
0.0
 70
    32
  0
VERTEX
  5
7111
  8
0
 10
1006.247675871546
 20
863.5513924075327
 30
0.0
 70
    32
  0
VERTEX
  5
7112
  8
0
 10
1006.23600908889
 20
863.5513924075327
 30
0.0
 70
    32
  0
VERTEX
  5
7113
  8
0
 10
1006.225285711839
 20
863.5513924075327
 30
0.0
 70
    32
  0
VERTEX
  5
7114
  8
0
 10
1006.215694421516
 20
863.5513924075327
 30
0.0
 70
    32
  0
VERTEX
  5
7115
  8
0
 10
1006.20742389904
 20
863.5513924075328
 30
0.0
 70
    32
  0
VERTEX
  5
7116
  8
0
 10
1006.200662825533
 20
863.5513924075328
 30
0.0
 70
    32
  0
VERTEX
  5
7117
  8
0
 10
1006.195599882117
 20
863.5513924075326
 30
0.0
 70
    32
  0
VERTEX
  5
7118
  8
0
 10
1006.192423749911
 20
863.5513924075327
 30
0.0
 70
    32
  0
VERTEX
  5
7119
  8
0
 10
1006.191323110038
 20
863.5513924075327
 30
0.0
 70
    32
  0
SEQEND
  5
7284
  8
0
  0
POLYLINE
  5
696E
  8
0
 10
0.0
 20
0.0
 30
0.0
 66
     1
 70
     8
  0
VERTEX
  5
711A
  8
0
 10
1006.191323110038
 20
863.5513924075327
 30
0.0
 70
    32
  0
VERTEX
  5
711B
  8
0
 10
1006.191323110038
 20
863.6506765984474
 30
0.0
 70
    32
  0
VERTEX
  5
711C
  8
0
 10
1006.191323110038
 20
863.9371824065154
 30
0.0
 70
    32
  0
VERTEX
  5
711D
  8
0
 10
1006.191323110038
 20
864.3938896847229
 30
0.0
 70
    32
  0
VERTEX
  5
711E
  8
0
 10
1006.191323110038
 20
865.0037782860558
 30
0.0
 70
    32
  0
VERTEX
  5
711F
  8
0
 10
1006.191323110038
 20
865.7498280635003
 30
0.0
 70
    32
  0
VERTEX
  5
7120
  8
0
 10
1006.191323110038
 20
866.6150188700424
 30
0.0
 70
    32
  0
VERTEX
  5
7121
  8
0
 10
1006.191323110038
 20
867.5823305586681
 30
0.0
 70
    32
  0
VERTEX
  5
7122
  8
0
 10
1006.191323110038
 20
868.6347429823635
 30
0.0
 70
    32
  0
VERTEX
  5
7123
  8
0
 10
1006.191323110038
 20
869.7552359941146
 30
0.0
 70
    32
  0
VERTEX
  5
7124
  8
0
 10
1006.191323110038
 20
870.9267894469077
 30
0.0
 70
    32
  0
VERTEX
  5
7125
  8
0
 10
1006.191323110038
 20
872.1323831937289
 30
0.0
 70
    32
  0
VERTEX
  5
7126
  8
0
 10
1006.191323110038
 20
873.3549970875636
 30
0.0
 70
    32
  0
VERTEX
  5
7127
  8
0
 10
1006.191323110038
 20
874.5776109813985
 30
0.0
 70
    32
  0
VERTEX
  5
7128
  8
0
 10
1006.191323110038
 20
875.7832047282193
 30
0.0
 70
    32
  0
VERTEX
  5
7129
  8
0
 10
1006.191323110038
 20
876.9547581810124
 30
0.0
 70
    32
  0
VERTEX
  5
712A
  8
0
 10
1006.191323110038
 20
878.0752511927635
 30
0.0
 70
    32
  0
VERTEX
  5
712B
  8
0
 10
1006.191323110038
 20
879.127663616459
 30
0.0
 70
    32
  0
VERTEX
  5
712C
  8
0
 10
1006.191323110038
 20
880.0949753050847
 30
0.0
 70
    32
  0
VERTEX
  5
712D
  8
0
 10
1006.191323110038
 20
880.9601661116268
 30
0.0
 70
    32
  0
VERTEX
  5
712E
  8
0
 10
1006.191323110038
 20
881.7062158890712
 30
0.0
 70
    32
  0
VERTEX
  5
712F
  8
0
 10
1006.191323110038
 20
882.3161044904042
 30
0.0
 70
    32
  0
VERTEX
  5
7130
  8
0
 10
1006.191323110038
 20
882.7728117686115
 30
0.0
 70
    32
  0
VERTEX
  5
7131
  8
0
 10
1006.191323110038
 20
883.0593175766795
 30
0.0
 70
    32
  0
VERTEX
  5
7132
  8
0
 10
1006.191323110038
 20
883.1586017675942
 30
0.0
 70
    32
  0
SEQEND
  5
7285
  8
0
  0
POLYLINE
  5
696F
  8
0
 10
0.0
 20
0.0
 30
0.0
 66
     1
 70
     8
  0
VERTEX
  5
7133
  8
0
 10
925.2862687560023
 20
856.4871712328123
 30
0.0
 70
    32
  0
VERTEX
  5
7134
  8
0
 10
925.6614683083391
 20
856.4871712328126
 30
0.0
 70
    32
  0
VERTEX
  5
7135
  8
0
 10
926.7441870165104
 20
856.4871712328122
 30
0.0
 70
    32
  0
VERTEX
  5
7136
  8
0
 10
928.4701049572589
 20
856.4871712328123
 30
0.0
 70
    32
  0
VERTEX
  5
7137
  8
0
 10
930.7749022073268
 20
856.4871712328123
 30
0.0
 70
    32
  0
VERTEX
  5
7138
  8
0
 10
933.5942588434564
 20
856.4871712328124
 30
0.0
 70
    32
  0
VERTEX
  5
7139
  8
0
 10
936.8638549423897
 20
856.4871712328123
 30
0.0
 70
    32
  0
VERTEX
  5
713A
  8
0
 10
940.5193705808695
 20
856.4871712328124
 30
0.0
 70
    32
  0
VERTEX
  5
713B
  8
0
 10
944.4964858356378
 20
856.4871712328124
 30
0.0
 70
    32
  0
VERTEX
  5
713C
  8
0
 10
948.7308807834369
 20
856.4871712328124
 30
0.0
 70
    32
  0
VERTEX
  5
713D
  8
0
 10
953.1582355010091
 20
856.4871712328123
 30
0.0
 70
    32
  0
VERTEX
  5
713E
  8
0
 10
957.7142300650967
 20
856.4871712328123
 30
0.0
 70
    32
  0
VERTEX
  5
713F
  8
0
 10
962.3345445524421
 20
856.4871712328123
 30
0.0
 70
    32
  0
VERTEX
  5
7140
  8
0
 10
966.9548590397875
 20
856.4871712328123
 30
0.0
 70
    32
  0
VERTEX
  5
7141
  8
0
 10
971.5108536038751
 20
856.4871712328123
 30
0.0
 70
    32
  0
VERTEX
  5
7142
  8
0
 10
975.9382083214474
 20
856.4871712328124
 30
0.0
 70
    32
  0
VERTEX
  5
7143
  8
0
 10
980.1726032692466
 20
856.4871712328123
 30
0.0
 70
    32
  0
VERTEX
  5
7144
  8
0
 10
984.1497185240148
 20
856.4871712328124
 30
0.0
 70
    32
  0
VERTEX
  5
7145
  8
0
 10
987.8052341624946
 20
856.4871712328123
 30
0.0
 70
    32
  0
VERTEX
  5
7146
  8
0
 10
991.0748302614279
 20
856.4871712328122
 30
0.0
 70
    32
  0
VERTEX
  5
7147
  8
0
 10
993.8941868975576
 20
856.4871712328123
 30
0.0
 70
    32
  0
VERTEX
  5
7148
  8
0
 10
996.1989841476254
 20
856.4871712328123
 30
0.0
 70
    32
  0
VERTEX
  5
7149
  8
0
 10
997.924902088374
 20
856.4871712328123
 30
0.0
 70
    32
  0
VERTEX
  5
714A
  8
0
 10
999.0076207965453
 20
856.4871712328122
 30
0.0
 70
    32
  0
VERTEX
  5
714B
  8
0
 10
999.382820348882
 20
856.4871712328123
 30
0.0
 70
    32
  0
SEQEND
  5
7286
  8
0
  0
POLYLINE
  5
6970
  8
0
 66
     1
 10
0.0
 20
0.0
 30
0.0
  0
VERTEX
  5
714C
  8
0
 10
999.382820348882
 20
856.4871712328123
 30
0.0
  0
VERTEX
  5
714D
  8
0
 10
999.5103683243054
 20
856.4913888108139
 30
0.0
  0
VERTEX
  5
714E
  8
0
 10
999.6355161648789
 20
856.5038639625866
 30
0.0
  0
VERTEX
  5
714F
  8
0
 10
999.7579947225335
 20
856.5243303147836
 30
0.0
  0
VERTEX
  5
7150
  8
0
 10
999.8775348491982
 20
856.5525214940567
 30
0.0
  0
VERTEX
  5
7151
  8
0
 10
999.9938673968044
 20
856.5881711270587
 30
0.0
  0
VERTEX
  5
7152
  8
0
 10
1000.106723217282
 20
856.6310128404424
 30
0.0
  0
VERTEX
  5
7153
  8
0
 10
1000.21583316256
 20
856.6807802608602
 30
0.0
  0
VERTEX
  5
7154
  8
0
 10
1000.32092808457
 20
856.7372070149643
 30
0.0
  0
VERTEX
  5
7155
  8
0
 10
1000.421738835242
 20
856.8000267294077
 30
0.0
  0
VERTEX
  5
7156
  8
0
 10
1000.517996266505
 20
856.8689730308428
 30
0.0
  0
VERTEX
  5
7157
  8
0
 10
1000.609431230291
 20
856.943779545922
 30
0.0
  0
VERTEX
  5
7158
  8
0
 10
1000.695774578528
 20
857.0241799012979
 30
0.0
  0
VERTEX
  5
7159
  8
0
 10
1000.776757163148
 20
857.109907723623
 30
0.0
  0
VERTEX
  5
715A
  8
0
 10
1000.85210983608
 20
857.2006966395501
 30
0.0
  0
VERTEX
  5
715B
  8
0
 10
1000.921563449255
 20
857.2962802757313
 30
0.0
  0
VERTEX
  5
715C
  8
0
 10
1000.984848854603
 20
857.3963922588196
 30
0.0
  0
VERTEX
  5
715D
  8
0
 10
1001.041696904053
 20
857.5007662154671
 30
0.0
  0
VERTEX
  5
715E
  8
0
 10
1001.091838449537
 20
857.6091357723268
 30
0.0
  0
VERTEX
  5
715F
  8
0
 10
1001.135004342985
 20
857.7212345560508
 30
0.0
  0
VERTEX
  5
7160
  8
0
 10
1001.170925436325
 20
857.8367961932918
 30
0.0
  0
VERTEX
  5
7161
  8
0
 10
1001.199332581489
 20
857.9555543107026
 30
0.0
  0
VERTEX
  5
7162
  8
0
 10
1001.219956630408
 20
858.0772425349353
 30
0.0
  0
VERTEX
  5
7163
  8
0
 10
1001.232528435009
 20
858.2015944926426
 30
0.0
  0
VERTEX
  5
7164
  8
0
 10
1001.236778847226
 20
858.3283438104771
 30
0.0
  0
SEQEND
  5
7287
  8
0
  0
POLYLINE
  5
6971
  8
0
 10
0.0
 20
0.0
 30
0.0
 66
     1
 70
     8
  0
VERTEX
  5
7165
  8
0
 10
1001.236778847226
 20
858.3283438104771
 30
0.0
 70
    32
  0
VERTEX
  5
7166
  8
0
 10
1001.236778847226
 20
859.7137904367456
 30
0.0
 70
    32
  0
VERTEX
  5
7167
  8
0
 10
1001.236778847226
 20
863.7117935582636
 30
0.0
 70
    32
  0
VERTEX
  5
7168
  8
0
 10
1001.236778847226
 20
870.0848480390988
 30
0.0
 70
    32
  0
VERTEX
  5
7169
  8
0
 10
1001.236778847226
 20
878.5954487433202
 30
0.0
 70
    32
  0
VERTEX
  5
716A
  8
0
 10
1001.236778847226
 20
889.0060905349953
 30
0.0
 70
    32
  0
VERTEX
  5
716B
  8
0
 10
1001.236778847226
 20
901.0792682781929
 30
0.0
 70
    32
  0
VERTEX
  5
716C
  8
0
 10
1001.236778847226
 20
914.5774768369808
 30
0.0
 70
    32
  0
VERTEX
  5
716D
  8
0
 10
1001.236778847226
 20
929.2632110754275
 30
0.0
 70
    32
  0
VERTEX
  5
716E
  8
0
 10
1001.236778847226
 20
944.8989658576014
 30
0.0
 70
    32
  0
VERTEX
  5
716F
  8
0
 10
1001.236778847226
 20
961.2472360475706
 30
0.0
 70
    32
  0
VERTEX
  5
7170
  8
0
 10
1001.236778847226
 20
978.0705165094031
 30
0.0
 70
    32
  0
VERTEX
  5
7171
  8
0
 10
1001.236778847226
 20
995.1313021071675
 30
0.0
 70
    32
  0
VERTEX
  5
7172
  8
0
 10
1001.236778847226
 20
1012.192087704932
 30
0.0
 70
    32
  0
VERTEX
  5
7173
  8
0
 10
1001.236778847226
 20
1029.015368166765
 30
0.0
 70
    32
  0
VERTEX
  5
7174
  8
0
 10
1001.236778847226
 20
1045.363638356734
 30
0.0
 70
    32
  0
VERTEX
  5
7175
  8
0
 10
1001.236778847226
 20
1060.999393138908
 30
0.0
 70
    32
  0
VERTEX
  5
7176
  8
0
 10
1001.236778847226
 20
1075.685127377354
 30
0.0
 70
    32
  0
VERTEX
  5
7177
  8
0
 10
1001.236778847226
 20
1089.183335936143
 30
0.0
 70
    32
  0
VERTEX
  5
7178
  8
0
 10
1001.236778847226
 20
1101.25651367934
 30
0.0
 70
    32
  0
VERTEX
  5
7179
  8
0
 10
1001.236778847226
 20
1111.667155471016
 30
0.0
 70
    32
  0
VERTEX
  5
717A
  8
0
 10
1001.236778847226
 20
1120.177756175237
 30
0.0
 70
    32
  0
VERTEX
  5
717B
  8
0
 10
1001.236778847226
 20
1126.550810656072
 30
0.0
 70
    32
  0
VERTEX
  5
717C
  8
0
 10
1001.236778847226
 20
1130.548813777591
 30
0.0
 70
    32
  0
VERTEX
  5
717D
  8
0
 10
1001.236778847226
 20
1131.934260403859
 30
0.0
 70
    32
  0
SEQEND
  5
7288
  8
0
  0
POLYLINE
  5
6972
  8
0
 66
     1
 10
0.0
 20
0.0
 30
0.0
  0
VERTEX
  5
717E
  8
0
 10
1001.236778847226
 20
1131.934260403859
 30
0.0
  0
VERTEX
  5
717F
  8
0
 10
1001.232528435009
 20
1132.060275807627
 30
0.0
  0
VERTEX
  5
7180
  8
0
 10
1001.219956630407
 20
1132.184018713774
 30
0.0
  0
VERTEX
  5
7181
  8
0
 10
1001.199332581489
 20
1132.305214424787
 30
0.0
  0
VERTEX
  5
7182
  8
0
 10
1001.170925436325
 20
1132.423588243149
 30
0.0
  0
VERTEX
  5
7183
  8
0
 10
1001.135004342985
 20
1132.538865471347
 30
0.0
  0
VERTEX
  5
7184
  8
0
 10
1001.091838449537
 20
1132.650771411866
 30
0.0
  0
VERTEX
  5
7185
  8
0
 10
1001.041696904054
 20
1132.759031367193
 30
0.0
  0
VERTEX
  5
7186
  8
0
 10
1000.984848854603
 20
1132.86337063981
 30
0.0
  0
VERTEX
  5
7187
  8
0
 10
1000.921563449255
 20
1132.963514532206
 30
0.0
  0
VERTEX
  5
7188
  8
0
 10
1000.85210983608
 20
1133.059188346864
 30
0.0
  0
VERTEX
  5
7189
  8
0
 10
1000.776757163148
 20
1133.150117386271
 30
0.0
  0
VERTEX
  5
718A
  8
0
 10
1000.695774578528
 20
1133.236026952911
 30
0.0
  0
VERTEX
  5
718B
  8
0
 10
1000.609431230291
 20
1133.316642349271
 30
0.0
  0
VERTEX
  5
718C
  8
0
 10
1000.517996266505
 20
1133.391688877835
 30
0.0
  0
VERTEX
  5
718D
  8
0
 10
1000.421738835242
 20
1133.460891841089
 30
0.0
  0
VERTEX
  5
718E
  8
0
 10
1000.32092808457
 20
1133.523976541519
 30
0.0
  0
VERTEX
  5
718F
  8
0
 10
1000.21583316256
 20
1133.580668281609
 30
0.0
  0
VERTEX
  5
7190
  8
0
 10
1000.106723217282
 20
1133.630692363846
 30
0.0
  0
VERTEX
  5
7191
  8
0
 10
999.9938673968044
 20
1133.673774090715
 30
0.0
  0
VERTEX
  5
7192
  8
0
 10
999.8775348491984
 20
1133.7096387647
 30
0.0
  0
VERTEX
  5
7193
  8
0
 10
999.7579947225332
 20
1133.738011688289
 30
0.0
  0
VERTEX
  5
7194
  8
0
 10
999.6355161648789
 20
1133.758618163965
 30
0.0
  0
VERTEX
  5
7195
  8
0
 10
999.5103683243053
 20
1133.771183494215
 30
0.0
  0
VERTEX
  5
7196
  8
0
 10
999.382820348882
 20
1133.775432981524
 30
0.0
  0
SEQEND
  5
7289
  8
0
  0
POLYLINE
  5
6973
  8
0
 10
0.0
 20
0.0
 30
0.0
 66
     1
 70
     8
  0
VERTEX
  5
7197
  8
0
 10
999.382820348882
 20
1133.775432981524
 30
0.0
 70
    32
  0
VERTEX
  5
7198
  8
0
 10
999.0076207965453
 20
1133.775432981524
 30
0.0
 70
    32
  0
VERTEX
  5
7199
  8
0
 10
997.9249020883739
 20
1133.775432981524
 30
0.0
 70
    32
  0
VERTEX
  5
719A
  8
0
 10
996.1989841476254
 20
1133.775432981524
 30
0.0
 70
    32
  0
VERTEX
  5
719B
  8
0
 10
993.8941868975573
 20
1133.775432981524
 30
0.0
 70
    32
  0
VERTEX
  5
719C
  8
0
 10
991.0748302614278
 20
1133.775432981524
 30
0.0
 70
    32
  0
VERTEX
  5
719D
  8
0
 10
987.8052341624943
 20
1133.775432981524
 30
0.0
 70
    32
  0
VERTEX
  5
719E
  8
0
 10
984.1497185240147
 20
1133.775432981524
 30
0.0
 70
    32
  0
VERTEX
  5
719F
  8
0
 10
980.1726032692463
 20
1133.775432981524
 30
0.0
 70
    32
  0
VERTEX
  5
71A0
  8
0
 10
975.9382083214471
 20
1133.775432981524
 30
0.0
 70
    32
  0
VERTEX
  5
71A1
  8
0
 10
971.5108536038749
 20
1133.775432981524
 30
0.0
 70
    32
  0
VERTEX
  5
71A2
  8
0
 10
966.9548590397872
 20
1133.775432981524
 30
0.0
 70
    32
  0
VERTEX
  5
71A3
  8
0
 10
962.3345445524417
 20
1133.775432981524
 30
0.0
 70
    32
  0
VERTEX
  5
71A4
  8
0
 10
957.7142300650962
 20
1133.775432981524
 30
0.0
 70
    32
  0
VERTEX
  5
71A5
  8
0
 10
953.1582355010086
 20
1133.775432981524
 30
0.0
 70
    32
  0
VERTEX
  5
71A6
  8
0
 10
948.7308807834364
 20
1133.775432981524
 30
0.0
 70
    32
  0
VERTEX
  5
71A7
  8
0
 10
944.4964858356373
 20
1133.775432981524
 30
0.0
 70
    32
  0
VERTEX
  5
71A8
  8
0
 10
940.519370580869
 20
1133.775432981524
 30
0.0
 70
    32
  0
VERTEX
  5
71A9
  8
0
 10
936.8638549423893
 20
1133.775432981524
 30
0.0
 70
    32
  0
VERTEX
  5
71AA
  8
0
 10
933.5942588434558
 20
1133.775432981524
 30
0.0
 70
    32
  0
VERTEX
  5
71AB
  8
0
 10
930.7749022073264
 20
1133.775432981524
 30
0.0
 70
    32
  0
VERTEX
  5
71AC
  8
0
 10
928.4701049572586
 20
1133.775432981524
 30
0.0
 70
    32
  0
VERTEX
  5
71AD
  8
0
 10
926.7441870165101
 20
1133.775432981524
 30
0.0
 70
    32
  0
VERTEX
  5
71AE
  8
0
 10
925.6614683083388
 20
1133.775432981524
 30
0.0
 70
    32
  0
VERTEX
  5
71AF
  8
0
 10
925.2862687560023
 20
1133.775432981524
 30
0.0
 70
    32
  0
SEQEND
  5
728A
  8
0
  0
POLYLINE
  5
6974
  8
0
 10
0.0
 20
0.0
 30
0.0
 66
     1
 70
     8
  0
VERTEX
  5
71B0
  8
0
 10
925.2862687560023
 20
1133.775432981524
 30
0.0
 70
    32
  0
VERTEX
  5
71B1
  8
0
 10
925.2862687560023
 20
1132.371340220933
 30
0.0
 70
    32
  0
VERTEX
  5
71B2
  8
0
 10
925.2862687560023
 20
1128.319529683228
 30
0.0
 70
    32
  0
VERTEX
  5
71B3
  8
0
 10
925.2862687560024
 20
1121.860702984509
 30
0.0
 70
    32
  0
VERTEX
  5
71B4
  8
0
 10
925.2862687560022
 20
1113.235561740878
 30
0.0
 70
    32
  0
VERTEX
  5
71B5
  8
0
 10
925.2862687560022
 20
1102.684807568437
 30
0.0
 70
    32
  0
VERTEX
  5
71B6
  8
0
 10
925.2862687560022
 20
1090.449142083287
 30
0.0
 70
    32
  0
VERTEX
  5
71B7
  8
0
 10
925.2862687560024
 20
1076.769266901529
 30
0.0
 70
    32
  0
VERTEX
  5
71B8
  8
0
 10
925.2862687560023
 20
1061.885883639265
 30
0.0
 70
    32
  0
VERTEX
  5
71B9
  8
0
 10
925.2862687560022
 20
1046.039693912594
 30
0.0
 70
    32
  0
VERTEX
  5
71BA
  8
0
 10
925.2862687560023
 20
1029.471399337621
 30
0.0
 70
    32
  0
VERTEX
  5
71BB
  8
0
 10
925.2862687560023
 20
1012.421701530444
 30
0.0
 70
    32
  0
VERTEX
  5
71BC
  8
0
 10
925.2862687560023
 20
995.1313021071666
 30
0.0
 70
    32
  0
VERTEX
  5
71BD
  8
0
 10
925.2862687560022
 20
977.8409026838888
 30
0.0
 70
    32
  0
VERTEX
  5
71BE
  8
0
 10
925.2862687560023
 20
960.7912048767125
 30
0.0
 70
    32
  0
VERTEX
  5
71BF
  8
0
 10
925.2862687560023
 20
944.2229103017389
 30
0.0
 70
    32
  0
VERTEX
  5
71C0
  8
0
 10
925.2862687560023
 20
928.3767205750693
 30
0.0
 70
    32
  0
VERTEX
  5
71C1
  8
0
 10
925.2862687560023
 20
913.4933373128047
 30
0.0
 70
    32
  0
VERTEX
  5
71C2
  8
0
 10
925.2862687560023
 20
899.8134621310469
 30
0.0
 70
    32
  0
VERTEX
  5
71C3
  8
0
 10
925.2862687560023
 20
887.5777966458969
 30
0.0
 70
    32
  0
VERTEX
  5
71C4
  8
0
 10
925.2862687560023
 20
877.0270424734563
 30
0.0
 70
    32
  0
VERTEX
  5
71C5
  8
0
 10
925.2862687560023
 20
868.4019012298262
 30
0.0
 70
    32
  0
VERTEX
  5
71C6
  8
0
 10
925.2862687560022
 20
861.9430745311079
 30
0.0
 70
    32
  0
VERTEX
  5
71C7
  8
0
 10
925.2862687560023
 20
857.8912639934028
 30
0.0
 70
    32
  0
VERTEX
  5
71C8
  8
0
 10
925.2862687560023
 20
856.4871712328123
 30
0.0
 70
    32
  0
SEQEND
  5
728B
  8
0
  0
LINE
  5
6975
  8
0
 10
974.558955352104
 20
855.956555524666
 30
0.0
 11
964.8586932551152
 21
855.956555524666
 31
0.0
  0
LINE
  5
6976
  8
0
 10
964.8586932551152
 20
855.956555524666
 30
0.0
 11
964.8586932551152
 21
856.4871712328123
 31
0.0
  0
LINE
  5
6977
  8
0
 10
964.8586932551152
 20
856.4871712328123
 30
0.0
 11
974.558955352104
 21
856.4871712328123
 31
0.0
  0
LINE
  5
6978
  8
0
 10
974.558955352104
 20
856.4871712328123
 30
0.0
 11
974.558955352104
 21
855.956555524666
 31
0.0
  0
LINE
  5
6979
  8
0
 10
998.5900932668319
 20
854.3583154398874
 30
0.0
 11
974.558955352104
 21
854.3583154398874
 31
0.0
  0
LINE
  5
697A
  8
0
 10
974.558955352104
 20
854.3583154398874
 30
0.0
 11
974.558955352104
 21
856.4871712328123
 31
0.0
  0
LINE
  5
697B
  8
0
 10
974.558955352104
 20
856.4871712328123
 30
0.0
 11
998.5900932668319
 21
856.4871712328123
 31
0.0
  0
LINE
  5
697C
  8
0
 10
998.5900932668319
 20
856.4871712328123
 30
0.0
 11
998.5900932668319
 21
854.3583154398874
 31
0.0
  0
POLYLINE
  5
697D
  8
0
 10
0.0
 20
0.0
 30
0.0
 66
     1
 70
     8
  0
VERTEX
  5
71C9
  8
0
 10
925.2862687560023
 20
846.7059419139686
 30
0.0
 70
    32
  0
VERTEX
  5
71CA
  8
0
 10
925.1990268601711
 20
846.7059419139686
 30
0.0
 70
    32
  0
VERTEX
  5
71CB
  8
0
 10
924.9472716750573
 20
846.7059419139686
 30
0.0
 70
    32
  0
VERTEX
  5
71CC
  8
0
 10
924.5459589542327
 20
846.7059419139684
 30
0.0
 70
    32
  0
VERTEX
  5
71CD
  8
0
 10
924.0100444512683
 20
846.7059419139687
 30
0.0
 70
    32
  0
VERTEX
  5
71CE
  8
0
 10
923.3544839197349
 20
846.7059419139686
 30
0.0
 70
    32
  0
VERTEX
  5
71CF
  8
0
 10
922.5942331132036
 20
846.7059419139686
 30
0.0
 70
    32
  0
VERTEX
  5
71D0
  8
0
 10
921.744247785246
 20
846.7059419139686
 30
0.0
 70
    32
  0
VERTEX
  5
71D1
  8
0
 10
920.8194836894328
 20
846.7059419139687
 30
0.0
 70
    32
  0
VERTEX
  5
71D2
  8
0
 10
919.8348965793351
 20
846.7059419139686
 30
0.0
 70
    32
  0
VERTEX
  5
71D3
  8
0
 10
918.8054422085241
 20
846.7059419139686
 30
0.0
 70
    32
  0
VERTEX
  5
71D4
  8
0
 10
917.746076330571
 20
846.7059419139686
 30
0.0
 70
    32
  0
VERTEX
  5
71D5
  8
0
 10
916.6717546990467
 20
846.7059419139686
 30
0.0
 70
    32
  0
VERTEX
  5
71D6
  8
0
 10
915.5974330675224
 20
846.7059419139684
 30
0.0
 70
    32
  0
VERTEX
  5
71D7
  8
0
 10
914.5380671895693
 20
846.7059419139687
 30
0.0
 70
    32
  0
VERTEX
  5
71D8
  8
0
 10
913.5086128187584
 20
846.7059419139687
 30
0.0
 70
    32
  0
VERTEX
  5
71D9
  8
0
 10
912.5240257086607
 20
846.7059419139686
 30
0.0
 70
    32
  0
VERTEX
  5
71DA
  8
0
 10
911.5992616128476
 20
846.7059419139687
 30
0.0
 70
    32
  0
VERTEX
  5
71DB
  8
0
 10
910.7492762848897
 20
846.7059419139686
 30
0.0
 70
    32
  0
VERTEX
  5
71DC
  8
0
 10
909.9890254783586
 20
846.7059419139684
 30
0.0
 70
    32
  0
VERTEX
  5
71DD
  8
0
 10
909.3334649468252
 20
846.7059419139684
 30
0.0
 70
    32
  0
VERTEX
  5
71DE
  8
0
 10
908.7975504438607
 20
846.7059419139686
 30
0.0
 70
    32
  0
VERTEX
  5
71DF
  8
0
 10
908.3962377230362
 20
846.7059419139686
 30
0.0
 70
    32
  0
VERTEX
  5
71E0
  8
0
 10
908.1444825379226
 20
846.7059419139684
 30
0.0
 70
    32
  0
VERTEX
  5
71E1
  8
0
 10
908.0572406420911
 20
846.7059419139686
 30
0.0
 70
    32
  0
SEQEND
  5
728C
  8
0
  0
POLYLINE
  5
697E
  8
0
 66
     1
 10
0.0
 20
0.0
 30
0.0
  0
VERTEX
  5
71E2
  8
0
 10
908.0572406420911
 20
846.7059419139686
 30
0.0
  0
VERTEX
  5
71E3
  8
0
 10
907.9311604948014
 20
846.7101918637311
 30
0.0
  0
VERTEX
  5
71E4
  8
0
 10
907.8072307573478
 20
846.722760431157
 30
0.0
  0
VERTEX
  5
71E5
  8
0
 10
907.685737226135
 20
846.7433756934543
 30
0.0
  0
VERTEX
  5
71E6
  8
0
 10
907.566965697566
 20
846.7717657278305
 30
0.0
  0
VERTEX
  5
71E7
  8
0
 10
907.4512019680458
 20
846.8076586114936
 30
0.0
  0
VERTEX
  5
71E8
  8
0
 10
907.338731833978
 20
846.8507824216516
 30
0.0
  0
VERTEX
  5
71E9
  8
0
 10
907.2298410917667
 20
846.9008652355118
 30
0.0
  0
VERTEX
  5
71EA
  8
0
 10
907.1248155378161
 20
846.9576351302826
 30
0.0
  0
VERTEX
  5
71EB
  8
0
 10
907.02394096853
 20
847.0208201831713
 30
0.0
  0
VERTEX
  5
71EC
  8
0
 10
906.9275031803127
 20
847.0901484713858
 30
0.0
  0
VERTEX
  5
71ED
  8
0
 10
906.835787969568
 20
847.165348072134
 30
0.0
  0
VERTEX
  5
71EE
  8
0
 10
906.7490811327002
 20
847.2461470626237
 30
0.0
  0
VERTEX
  5
71EF
  8
0
 10
906.6676684661131
 20
847.3322735200627
 30
0.0
  0
VERTEX
  5
71F0
  8
0
 10
906.5918357662109
 20
847.4234555216585
 30
0.0
  0
VERTEX
  5
71F1
  8
0
 10
906.5218688293976
 20
847.5194211446194
 30
0.0
  0
VERTEX
  5
71F2
  8
0
 10
906.4580534520774
 20
847.6198984661529
 30
0.0
  0
VERTEX
  5
71F3
  8
0
 10
906.4006754306542
 20
847.7246155634671
 30
0.0
  0
VERTEX
  5
71F4
  8
0
 10
906.3500205615319
 20
847.8333005137691
 30
0.0
  0
VERTEX
  5
71F5
  8
0
 10
906.3063746411151
 20
847.9456813942675
 30
0.0
  0
VERTEX
  5
71F6
  8
0
 10
906.2700234658071
 20
848.0614862821694
 30
0.0
  0
VERTEX
  5
71F7
  8
0
 10
906.2412528320126
 20
848.1804432546834
 30
0.0
  0
VERTEX
  5
71F8
  8
0
 10
906.2203485361351
 20
848.3022803890165
 30
0.0
  0
VERTEX
  5
71F9
  8
0
 10
906.207596374579
 20
848.4267257623769
 30
0.0
  0
VERTEX
  5
71FA
  8
0
 10
906.2032821437483
 20
848.5535074519725
 30
0.0
  0
SEQEND
  5
728D
  8
0
  0
POLYLINE
  5
697F
  8
0
 10
0.0
 20
0.0
 30
0.0
 66
     1
 70
     8
  0
VERTEX
  5
71FB
  8
0
 10
906.2032821437483
 20
848.5535074519725
 30
0.0
 70
    32
  0
VERTEX
  5
71FC
  8
0
 10
906.2032821437482
 20
850.0539261681113
 30
0.0
 70
    32
  0
VERTEX
  5
71FD
  8
0
 10
906.2032821437482
 20
854.3837058918263
 30
0.0
 70
    32
  0
VERTEX
  5
71FE
  8
0
 10
906.2032821437482
 20
861.2856319860647
 30
0.0
 70
    32
  0
VERTEX
  5
71FF
  8
0
 10
906.2032821437483
 20
870.5024898137747
 30
0.0
 70
    32
  0
VERTEX
  5
7200
  8
0
 10
906.2032821437483
 20
881.7770647379035
 30
0.0
 70
    32
  0
VERTEX
  5
7201
  8
0
 10
906.2032821437483
 20
894.852142121399
 30
0.0
 70
    32
  0
VERTEX
  5
7202
  8
0
 10
906.2032821437483
 20
909.4705073272087
 30
0.0
 70
    32
  0
VERTEX
  5
7203
  8
0
 10
906.2032821437481
 20
925.3749457182802
 30
0.0
 70
    32
  0
VERTEX
  5
7204
  8
0
 10
906.2032821437482
 20
942.3082426575612
 30
0.0
 70
    32
  0
VERTEX
  5
7205
  8
0
 10
906.2032821437482
 20
960.0131835079994
 30
0.0
 70
    32
  0
VERTEX
  5
7206
  8
0
 10
906.2032821437481
 20
978.2325536325421
 30
0.0
 70
    32
  0
VERTEX
  5
7207
  8
0
 10
906.203282143748
 20
996.7091383941375
 30
0.0
 70
    32
  0
VERTEX
  5
7208
  8
0
 10
906.2032821437481
 20
1015.185723155733
 30
0.0
 70
    32
  0
VERTEX
  5
7209
  8
0
 10
906.203282143748
 20
1033.405093280276
 30
0.0
 70
    32
  0
VERTEX
  5
720A
  8
0
 10
906.2032821437481
 20
1051.110034130714
 30
0.0
 70
    32
  0
VERTEX
  5
720B
  8
0
 10
906.2032821437479
 20
1068.043331069995
 30
0.0
 70
    32
  0
VERTEX
  5
720C
  8
0
 10
906.2032821437479
 20
1083.947769461067
 30
0.0
 70
    32
  0
VERTEX
  5
720D
  8
0
 10
906.203282143748
 20
1098.566134666876
 30
0.0
 70
    32
  0
VERTEX
  5
720E
  8
0
 10
906.2032821437479
 20
1111.641212050372
 30
0.0
 70
    32
  0
VERTEX
  5
720F
  8
0
 10
906.2032821437479
 20
1122.915786974501
 30
0.0
 70
    32
  0
VERTEX
  5
7210
  8
0
 10
906.2032821437479
 20
1132.132644802211
 30
0.0
 70
    32
  0
VERTEX
  5
7211
  8
0
 10
906.2032821437479
 20
1139.03457089645
 30
0.0
 70
    32
  0
VERTEX
  5
7212
  8
0
 10
906.2032821437479
 20
1143.364350620165
 30
0.0
 70
    32
  0
VERTEX
  5
7213
  8
0
 10
906.2032821437479
 20
1144.864769336304
 30
0.0
 70
    32
  0
SEQEND
  5
728E
  8
0
  0
POLYLINE
  5
6980
  8
0
 66
     1
 10
0.0
 20
0.0
 30
0.0
  0
VERTEX
  5
7214
  8
0
 10
906.2032821437479
 20
1144.864769336304
 30
0.0
  0
VERTEX
  5
7215
  8
0
 10
906.2075963745785
 20
1144.990784740072
 30
0.0
  0
VERTEX
  5
7216
  8
0
 10
906.2203485361347
 20
1145.114527646219
 30
0.0
  0
VERTEX
  5
7217
  8
0
 10
906.241252832012
 20
1145.235723357231
 30
0.0
  0
VERTEX
  5
7218
  8
0
 10
906.2700234658066
 20
1145.354097175594
 30
0.0
  0
VERTEX
  5
7219
  8
0
 10
906.3063746411145
 20
1145.469374403792
 30
0.0
  0
VERTEX
  5
721A
  8
0
 10
906.3500205615317
 20
1145.581280344311
 30
0.0
  0
VERTEX
  5
721B
  8
0
 10
906.4006754306537
 20
1145.689540299637
 30
0.0
  0
VERTEX
  5
721C
  8
0
 10
906.4580534520771
 20
1145.793879572255
 30
0.0
  0
VERTEX
  5
721D
  8
0
 10
906.5218688293972
 20
1145.89402346465
 30
0.0
  0
VERTEX
  5
721E
  8
0
 10
906.5918357662106
 20
1145.989697279309
 30
0.0
  0
VERTEX
  5
721F
  8
0
 10
906.6676684661127
 20
1146.080626318716
 30
0.0
  0
VERTEX
  5
7220
  8
0
 10
906.7490811326996
 20
1146.166535885356
 30
0.0
  0
VERTEX
  5
7221
  8
0
 10
906.8357879695675
 20
1146.247151281716
 30
0.0
  0
VERTEX
  5
7222
  8
0
 10
906.9275031803122
 20
1146.32219781028
 30
0.0
  0
VERTEX
  5
7223
  8
0
 10
907.0239409685297
 20
1146.391400773534
 30
0.0
  0
VERTEX
  5
7224
  8
0
 10
907.1248155378156
 20
1146.454485473964
 30
0.0
  0
VERTEX
  5
7225
  8
0
 10
907.2298410917663
 20
1146.511177214054
 30
0.0
  0
VERTEX
  5
7226
  8
0
 10
907.3387318339776
 20
1146.561201296291
 30
0.0
  0
VERTEX
  5
7227
  8
0
 10
907.4512019680453
 20
1146.604283023159
 30
0.0
  0
VERTEX
  5
7228
  8
0
 10
907.5669656975656
 20
1146.640147697145
 30
0.0
  0
VERTEX
  5
7229
  8
0
 10
907.6857372261344
 20
1146.668520620733
 30
0.0
  0
VERTEX
  5
722A
  8
0
 10
907.8072307573475
 20
1146.68912709641
 30
0.0
  0
VERTEX
  5
722B
  8
0
 10
907.9311604948009
 20
1146.70169242666
 30
0.0
  0
VERTEX
  5
722C
  8
0
 10
908.0572406420906
 20
1146.705941913969
 30
0.0
  0
SEQEND
  5
728F
  8
0
  0
POLYLINE
  5
6981
  8
0
 10
0.0
 20
0.0
 30
0.0
 66
     1
 70
     8
  0
VERTEX
  5
722D
  8
0
 10
908.0572406420906
 20
1146.705941913969
 30
0.0
 70
    32
  0
VERTEX
  5
722E
  8
0
 10
908.1444825379222
 20
1146.705941913969
 30
0.0
 70
    32
  0
VERTEX
  5
722F
  8
0
 10
908.3962377230356
 20
1146.705941913969
 30
0.0
 70
    32
  0
VERTEX
  5
7230
  8
0
 10
908.7975504438604
 20
1146.705941913969
 30
0.0
 70
    32
  0
VERTEX
  5
7231
  8
0
 10
909.3334649468247
 20
1146.705941913968
 30
0.0
 70
    32
  0
VERTEX
  5
7232
  8
0
 10
909.9890254783581
 20
1146.705941913969
 30
0.0
 70
    32
  0
VERTEX
  5
7233
  8
0
 10
910.7492762848892
 20
1146.705941913969
 30
0.0
 70
    32
  0
VERTEX
  5
7234
  8
0
 10
911.599261612847
 20
1146.705941913969
 30
0.0
 70
    32
  0
VERTEX
  5
7235
  8
0
 10
912.5240257086602
 20
1146.705941913969
 30
0.0
 70
    32
  0
VERTEX
  5
7236
  8
0
 10
913.5086128187579
 20
1146.705941913969
 30
0.0
 70
    32
  0
VERTEX
  5
7237
  8
0
 10
914.5380671895689
 20
1146.705941913969
 30
0.0
 70
    32
  0
VERTEX
  5
7238
  8
0
 10
915.597433067522
 20
1146.705941913969
 30
0.0
 70
    32
  0
VERTEX
  5
7239
  8
0
 10
916.6717546990463
 20
1146.705941913969
 30
0.0
 70
    32
  0
VERTEX
  5
723A
  8
0
 10
917.7460763305705
 20
1146.705941913968
 30
0.0
 70
    32
  0
VERTEX
  5
723B
  8
0
 10
918.8054422085237
 20
1146.705941913969
 30
0.0
 70
    32
  0
VERTEX
  5
723C
  8
0
 10
919.8348965793347
 20
1146.705941913969
 30
0.0
 70
    32
  0
VERTEX
  5
723D
  8
0
 10
920.8194836894324
 20
1146.705941913969
 30
0.0
 70
    32
  0
VERTEX
  5
723E
  8
0
 10
921.7442477852455
 20
1146.705941913969
 30
0.0
 70
    32
  0
VERTEX
  5
723F
  8
0
 10
922.5942331132034
 20
1146.705941913969
 30
0.0
 70
    32
  0
VERTEX
  5
7240
  8
0
 10
923.3544839197343
 20
1146.705941913969
 30
0.0
 70
    32
  0
VERTEX
  5
7241
  8
0
 10
924.0100444512677
 20
1146.705941913969
 30
0.0
 70
    32
  0
VERTEX
  5
7242
  8
0
 10
924.5459589542323
 20
1146.705941913969
 30
0.0
 70
    32
  0
VERTEX
  5
7243
  8
0
 10
924.9472716750568
 20
1146.705941913969
 30
0.0
 70
    32
  0
VERTEX
  5
7244
  8
0
 10
925.1990268601704
 20
1146.705941913969
 30
0.0
 70
    32
  0
VERTEX
  5
7245
  8
0
 10
925.2862687560018
 20
1146.705941913969
 30
0.0
 70
    32
  0
SEQEND
  5
7290
  8
0
  0
POLYLINE
  5
6982
  8
0
 10
0.0
 20
0.0
 30
0.0
 66
     1
 70
     8
  0
VERTEX
  5
7246
  8
0
 10
925.2862687560018
 20
1146.705941913969
 30
0.0
 70
    32
  0
VERTEX
  5
7247
  8
0
 10
925.2862687560018
 20
1145.186844691747
 30
0.0
 70
    32
  0
VERTEX
  5
7248
  8
0
 10
925.2862687560018
 20
1140.803164136191
 30
0.0
 70
    32
  0
VERTEX
  5
7249
  8
0
 10
925.2862687560018
 20
1133.815316913969
 30
0.0
 70
    32
  0
VERTEX
  5
724A
  8
0
 10
925.2862687560018
 20
1124.483719691746
 30
0.0
 70
    32
  0
VERTEX
  5
724B
  8
0
 10
925.2862687560017
 20
1113.06878913619
 30
0.0
 70
    32
  0
VERTEX
  5
724C
  8
0
 10
925.286268756002
 20
1099.830941913968
 30
0.0
 70
    32
  0
VERTEX
  5
724D
  8
0
 10
925.286268756002
 20
1085.030594691746
 30
0.0
 70
    32
  0
VERTEX
  5
724E
  8
0
 10
925.2862687560021
 20
1068.92816413619
 30
0.0
 70
    32
  0
VERTEX
  5
724F
  8
0
 10
925.286268756002
 20
1051.784066913968
 30
0.0
 70
    32
  0
VERTEX
  5
7250
  8
0
 10
925.2862687560021
 20
1033.858719691745
 30
0.0
 70
    32
  0
VERTEX
  5
7251
  8
0
 10
925.2862687560021
 20
1015.412539136189
 30
0.0
 70
    32
  0
VERTEX
  5
7252
  8
0
 10
925.2862687560021
 20
996.705941913967
 30
0.0
 70
    32
  0
VERTEX
  5
7253
  8
0
 10
925.2862687560021
 20
977.9993446917445
 30
0.0
 70
    32
  0
VERTEX
  5
7254
  8
0
 10
925.2862687560021
 20
959.5531641361889
 30
0.0
 70
    32
  0
VERTEX
  5
7255
  8
0
 10
925.2862687560022
 20
941.6278169139666
 30
0.0
 70
    32
  0
VERTEX
  5
7256
  8
0
 10
925.2862687560023
 20
924.4837196917445
 30
0.0
 70
    32
  0
VERTEX
  5
7257
  8
0
 10
925.2862687560023
 20
908.3812891361889
 30
0.0
 70
    32
  0
VERTEX
  5
7258
  8
0
 10
925.2862687560023
 20
893.5809419139667
 30
0.0
 70
    32
  0
VERTEX
  5
7259
  8
0
 10
925.2862687560023
 20
880.3430946917447
 30
0.0
 70
    32
  0
VERTEX
  5
725A
  8
0
 10
925.2862687560023
 20
868.9281641361893
 30
0.0
 70
    32
  0
VERTEX
  5
725B
  8
0
 10
925.2862687560023
 20
859.5965669139673
 30
0.0
 70
    32
  0
VERTEX
  5
725C
  8
0
 10
925.2862687560022
 20
852.6087196917454
 30
0.0
 70
    32
  0
VERTEX
  5
725D
  8
0
 10
925.2862687560023
 20
848.2250391361902
 30
0.0
 70
    32
  0
VERTEX
  5
725E
  8
0
 10
925.2862687560023
 20
846.7059419139686
 30
0.0
 70
    32
  0
SEQEND
  5
7291
  8
0
  0
LINE
  5
6983
  8
0
 10
1030.203282143749
 20
910.3158972881487
 30
0.0
 11
1001.236778847226
 21
910.3158972881487
 31
0.0
  0
LINE
  5
6984
  8
0
 10
1001.236778847226
 20
910.3158972881487
 30
0.0
 11
1001.236778847226
 21
1084.568817251367
 31
0.0
  0
LINE
  5
6985
  8
0
 10
1001.236778847226
 20
1084.568817251367
 30
0.0
 11
1030.203282143749
 21
1084.568817251367
 31
0.0
  0
LINE
  5
6986
  8
0
 10
1030.203282143749
 20
1084.568817251367
 30
0.0
 11
1030.203282143749
 21
910.3158972881487
 31
0.0
  0
LINE
  5
6987
  8
0
 10
1020.294193618122
 20
1084.568817251367
 30
0.0
 11
1001.236778847226
 21
1084.568817251367
 31
0.0
  0
LINE
  5
6988
  8
0
 10
1001.236778847226
 20
1084.568817251367
 30
0.0
 11
1001.236778847226
 21
1094.273331046142
 31
0.0
  0
LINE
  5
6989
  8
0
 10
1001.236778847226
 20
1094.273331046142
 30
0.0
 11
1020.294193618122
 21
1094.273331046142
 31
0.0
  0
LINE
  5
698A
  8
0
 10
1020.294193618122
 20
1094.273331046142
 30
0.0
 11
1020.294193618122
 21
1084.568817251367
 31
0.0
  0
LINE
  5
698B
  8
0
 10
1007.022407954123
 20
1084.568817251367
 30
0.0
 11
1007.022407954123
 21
1056.433398798928
 31
0.0
  0
LINE
  5
698C
  8
0
 10
1007.022407954123
 20
1056.433398798928
 30
0.0
 11
1010.807040474878
 21
1052.66794515919
 31
0.0
  0
LINE
  5
698D
  8
0
 10
1010.807040474878
 20
1052.66794515919
 30
0.0
 11
1010.807040474878
 21
1045.507829579383
 31
0.0
  0
LINE
  5
698E
  8
0
 10
1010.807040474878
 20
1045.507829579383
 30
0.0
 11
1001.236778847226
 21
1045.507829579383
 31
0.0
  0
LINE
  5
698F
  8
0
 10
1001.236778847226
 20
1045.507829579383
 30
0.0
 11
1001.236778847226
 21
1090.271337873856
 31
0.0
  0
LINE
  5
6990
  8
0
 10
1001.236778847226
 20
1090.271337873856
 30
0.0
 11
1005.251557940189
 21
1090.271337873856
 31
0.0
  0
LINE
  5
6991
  8
0
 10
1005.251557940189
 20
1090.271337873856
 30
0.0
 11
1005.251557940189
 21
1094.273331046142
 31
0.0
  0
LINE
  5
6D04
  8
0
 10
681.24922333441
 20
1146.705941913969
 30
0.0
 11
629.2841577964073
 21
1146.705941913969
 31
0.0
  0
LINE
  5
6D05
  8
0
 10
681.2492233344107
 20
846.7059419139687
 30
0.0
 11
629.2841577964073
 21
846.7059419139687
 31
0.0
  0
LINE
  5
6D06
  8
0
 10
629.4641577964072
 20
1111.705941913969
 30
0.0
 11
629.4641577964072
 21
881.7059419139687
 31
0.0
  0
INSERT
  5
6D07
  8
0
  2
_OPEN
 10
629.4641577964072
 20
1146.705941913969
 30
0.0
 41
35.0
 42
35.0
 43
35.0
 50
90.0
  0
INSERT
  5
6D08
  8
0
  2
_OPEN
 10
629.4641577964072
 20
846.7059419139687
 30
0.0
 41
35.0
 42
35.0
 43
35.0
 50
270.0
  0
TEXT
  5
6D09
  8
0
  6
CONTINUOUS
 10
619.4641577964071
 20
958.1359419139688
 30
0.0
 40
35.0
  1
300
 50
90.0
  0
LINE
  5
6D0A
  8
0
 10
906.2032821437479
 20
1144.927269336304
 30
0.0
 11
906.2032821437479
 21
1246.885941913965
 31
0.0
  0
LINE
  5
6D0B
  8
0
 10
1030.203282143749
 20
1084.631317251363
 30
0.0
 11
1030.203282143749
 21
1246.885941913965
 31
0.0
  0
LINE
  5
6D0C
  8
0
 10
941.2032821437479
 20
1246.705941913965
 30
0.0
 11
995.2032821437488
 21
1246.705941913965
 31
0.0
  0
INSERT
  5
6D0D
  8
0
  2
_OPEN
 10
906.2032821437479
 20
1246.705941913965
 30
0.0
 41
35.0
 42
35.0
 43
35.0
 50
180.0
  0
INSERT
  5
6D0E
  8
0
  2
_OPEN
 10
1030.203282143749
 20
1246.705941913965
 30
0.0
 41
35.0
 42
35.0
 43
35.0
  0
TEXT
  5
6D0F
  8
0
  6
CONTINUOUS
 10
928.1457821437483
 20
1256.705941913965
 30
0.0
 40
35.0
  1
124
  0
LINE
  5
6D10
  8
0
 10
679.4641577964071
 20
1144.914483415626
 30
0.0
 11
679.4641577964071
 21
1246.885941913969
 31
0.0
  0
LINE
  5
6D11
  8
0
 10
859.4641577964071
 20
1144.914483415626
 30
0.0
 11
859.4641577964071
 21
1246.885941913969
 31
0.0
  0
LINE
  5
6D12
  8
0
 10
714.4641577964071
 20
1246.705941913968
 30
0.0
 11
824.4641577964071
 21
1246.705941913968
 31
0.0
  0
INSERT
  5
6D13
  8
0
  2
_OPEN
 10
679.4641577964071
 20
1246.705941913968
 30
0.0
 41
35.0
 42
35.0
 43
35.0
 50
180.0
  0
INSERT
  5
6D14
  8
0
  2
_OPEN
 10
859.4641577964071
 20
1246.705941913968
 30
0.0
 41
35.0
 42
35.0
 43
35.0
  0
TEXT
  5
6D15
  8
0
  6
CONTINUOUS
 10
729.5116577964071
 20
1256.705941913969
 30
0.0
 40
35.0
  1
180
  0
TEXT
  5
6D16
  8
0
  6
CONTINUOUS
 10
1766.348384583918
 20
1283.465742412575
 30
0.0
 40
20.0
  1
  型式
  0
TEXT
  5
6D17
  8
0
  6
CONTINUOUS
 10
2302.488384583918
 20
1284.155742412575
 30
0.0
 40
20.0
  1
KP-ST3-1
  0
TEXT
  5
6D18
  8
0
  6
CONTINUOUS
 10
1766.348384583918
 20
1233.755742412575
 30
0.0
 40
20.0
  1
  定格出力電圧
  0
TEXT
  5
6D19
  8
0
  6
CONTINUOUS
 10
2325.268384583918
 20
1234.155742412575
 30
0.0
 40
20.0
  1
1150V
  0
TEXT
  5
6D1A
  8
0
  6
CONTINUOUS
 10
1766.348384583918
 20
1183.645742412575
 30
0.0
 40
20.0
  1
  入力運転電圧範囲
  0
TEXT
  5
6D1B
  8
0
  6
CONTINUOUS
 10
2284.928384583918
 20
1184.155742412575
 30
0.0
 40
20.0
  1
DC40～320V
  0
TEXT
  5
6D1C
  8
0
  6
CONTINUOUS
 10
1766.348384583918
 20
1133.585742412575
 30
0.0
 40
20.0
  1
  昇圧範囲
  0
TEXT
  5
6D1D
  8
0
  6
CONTINUOUS
 10
2156.468384583918
 20
1133.585742412575
 30
0.0
 40
20.0
  1
最大8倍(MPPT範囲:DC40～320V)
  0
TEXT
  5
6D1E
  8
0
  6
CONTINUOUS
 10
1766.348384583918
 20
1083.755742412575
 30
0.0
 40
20.0
  1
  昇圧方式
  0
TEXT
  5
6D1F
  8
0
  6
CONTINUOUS
 10
2304.928384583918
 20
1083.755742412575
 30
0.0
 40
20.0
  1
自動昇圧
  0
TEXT
  5
6D20
  8
0
  6
CONTINUOUS
 10
1766.348384583918
 20
1033.695742412575
 30
0.0
 40
20.0
  1
  回路数
  0
TEXT
  5
6D21
  8
0
  6
CONTINUOUS
 10
2327.368384583918
 20
1033.585742412575
 30
0.0
 40
20.0
  1
1回路
  0
TEXT
  5
6D22
  8
0
  6
CONTINUOUS
 10
1766.348384583918
 20
983.7557424125746
 30
0.0
 40
20.0
  1
  電力変換効率
  0
TEXT
  5
6D23
  8
0
  6
CONTINUOUS
 10
2091.538384583918
 20
983.8057424125747
 30
0.0
 40
20.0
  1
97％以上(200V入力250V出力、500W出力時)
  0
TEXT
  5
6D24
  8
0
  6
CONTINUOUS
 10
1766.348384583918
 20
933.6957424125746
 30
0.0
 40
20.0
  1
  使用温度範囲
  0
TEXT
  5
6D25
  8
0
  6
CONTINUOUS
 10
2206.268384583918
 20
933.6457424125746
 30
0.0
 40
20.0
  1
-10～+40℃(氷結なきこと)
  0
TEXT
  5
6D26
  8
0
  6
CONTINUOUS
 10
1766.348384583918
 20
883.6957424125746
 30
0.0
 40
20.0
  1
  使用湿度範囲
  0
TEXT
  5
6D27
  8
0
  6
CONTINUOUS
 10
2209.338384583918
 20
884.0457424125747
 30
0.0
 40
20.0
  1
25～85%RH(結露なきこと)
  0
TEXT
  5
6D28
  8
0
  6
CONTINUOUS
 10
1766.348384583918
 20
834.0357424125747
 30
0.0
 40
20.0
  1
  外形寸法（WxHxD）
  0
TEXT
  5
6D29
  8
0
  6
CONTINUOUS
 10
2258.358384583918
 20
834.1557424125746
 30
0.0
 40
20.0
  1
180x300x124ｍｍ
  0
TEXT
  5
6D2A
  8
0
  6
CONTINUOUS
 10
1766.348384583918
 20
784.0357424125747
 30
0.0
 40
20.0
  1
  質量
  0
TEXT
  5
6D2B
  8
0
  6
CONTINUOUS
 10
2318.108384583918
 20
783.7557424125746
 30
0.0
 40
20.0
  1
約4.2㎏
  0
TEXT
  5
6D2C
  8
0
  6
CONTINUOUS
 10
1766.348384583918
 20
734.1557424125746
 30
0.0
 40
20.0
  1
  設置場所
  0
TEXT
  5
6D2D
  8
0
  6
CONTINUOUS
 10
2212.358384583918
 20
733.5857424125746
 30
0.0
 40
20.0
  1
屋外(軒下壁掛け)／屋内
  0
LINE
  5
6D2E
  8
0
 10
1764.848384583918
 20
1319.205742412575
 30
0.0
 11
2664.848384583918
 21
1319.205742412575
 31
0.0
  0
LINE
  5
6D2F
  8
0
 10
1764.848384583918
 20
1269.205742412575
 30
0.0
 11
2664.848384583918
 21
1269.205742412575
 31
0.0
  0
LINE
  5
6D30
  8
0
 10
1764.848384583918
 20
1219.205742412575
 30
0.0
 11
2664.848384583918
 21
1219.205742412575
 31
0.0
  0
LINE
  5
6D31
  8
0
 10
1764.848384583918
 20
1169.205742412575
 30
0.0
 11
2664.848384583918
 21
1169.205742412575
 31
0.0
  0
LINE
  5
6D32
  8
0
 10
1764.848384583918
 20
1119.205742412575
 30
0.0
 11
2664.848384583918
 21
1119.205742412575
 31
0.0
  0
LINE
  5
6D33
  8
0
 10
1764.848384583918
 20
1069.205742412575
 30
0.0
 11
2664.848384583918
 21
1069.205742412575
 31
0.0
  0
LINE
  5
6D34
  8
0
 10
1764.848384583918
 20
1019.205742412575
 30
0.0
 11
2664.848384583918
 21
1019.205742412575
 31
0.0
  0
LINE
  5
6D35
  8
0
 10
1764.848384583918
 20
969.2057424125746
 30
0.0
 11
2664.848384583918
 21
969.2057424125746
 31
0.0
  0
LINE
  5
6D36
  8
0
 10
1764.848384583918
 20
919.2057424125746
 30
0.0
 11
2664.848384583918
 21
919.2057424125746
 31
0.0
  0
LINE
  5
6D37
  8
0
 10
1764.848384583918
 20
869.2057424125746
 30
0.0
 11
2664.848384583918
 21
869.2057424125746
 31
0.0
  0
LINE
  5
6D38
  8
0
 10
1764.848384583918
 20
819.2057424125746
 30
0.0
 11
2664.848384583918
 21
819.2057424125746
 31
0.0
  0
LINE
  5
6D39
  8
0
 10
1764.848384583918
 20
769.2057424125746
 30
0.0
 11
2664.848384583918
 21
769.2057424125746
 31
0.0
  0
LINE
  5
6D3A
  8
0
 10
1764.848384583918
 20
719.2057424125746
 30
0.0
 11
2664.848384583918
 21
719.2057424125746
 31
0.0
  0
LINE
  5
6D3B
  8
0
 10
1764.848384583918
 20
1319.205742412575
 30
0.0
 11
1764.848384583918
 21
719.2057424125746
 31
0.0
  0
LINE
  5
6D3C
  8
0
 10
2064.848384583918
 20
1319.205742412575
 30
0.0
 11
2064.848384583918
 21
719.2057424125746
 31
0.0
  0
LINE
  5
6D3D
  8
0
 10
2664.848384583918
 20
1319.205742412575
 30
0.0
 11
2664.848384583918
 21
719.2057424125746
 31
0.0
  0
ENDSEC
  0
EOF
