  0
SECTION
  2
HEADER
  9
$ACADVER
  1
AC1009
  9
$INSBASE
 10
0.0
 20
0.0
 30
0.0
  9
$EXTMIN
 10
3943.1504576720499
 20
-0.0358050832401205
 30
-0.0000000000112498
  9
$EXTMAX
 10
6914.1503762263847
 20
2100.0513927539059
 30
0.0000000000002956
  9
$LIMMIN
 10
109.65118815104159
 20
82.197222222222209
  9
$LIMMAX
 10
147.89037000868049
 20
96.502808973524296
  9
$ORTHOMODE
 70
     0
  9
$REGENMODE
 70
     1
  9
$FILLMODE
 70
     1
  9
$QTEXTMODE
 70
     0
  9
$MIRRTEXT
 70
     1
  9
$DRAGMODE
 70
     2
  9
$LTSCALE
 40
1.0
  9
$OSMODE
 70
    34
  9
$ATTMODE
 70
     1
  9
$TEXTSIZE
 40
0.0
  9
$TRACEWID
 40
0.05
  9
$TEXTSTYLE
  7
STANDARD
  9
$CLAYER
  8
0
  9
$CELTYPE
  6
CONTINUOUS
  9
$CECOLOR
 62
   256
  9
$DIMSCALE
 40
1.0
  9
$DIMASZ
 40
35.0
  9
$DIMEXO
 40
0.0625
  9
$DIMDLI
 40
10.0
  9
$DIMRND
 40
0.0
  9
$DIMDLE
 40
0.0
  9
$DIMEXE
 40
0.18
  9
$DIMTP
 40
0.0
  9
$DIMTM
 40
0.0
  9
$DIMTXT
 40
35.0
  9
$DIMCEN
 40
0.09
  9
$DIMTSZ
 40
0.0
  9
$DIMTOL
 70
     0
  9
$DIMLIM
 70
     0
  9
$DIMTIH
 70
     0
  9
$DIMTOH
 70
     0
  9
$DIMSE1
 70
     0
  9
$DIMSE2
 70
     0
  9
$DIMTAD
 70
     3
  9
$DIMZIN
 70
     0
  9
$DIMBLK
  1
OPEN
  9
$DIMASO
 70
     1
  9
$DIMSHO
 70
     1
  9
$DIMPOST
  1

  9
$DIMAPOST
  1

  9
$DIMALT
 70
     0
  9
$DIMALTD
 70
     2
  9
$DIMALTF
 40
25.399999999999999
  9
$DIMLFAC
 40
1.0
  9
$DIMTOFL
 70
     0
  9
$DIMTVP
 40
0.0
  9
$DIMTIX
 70
     0
  9
$DIMSOXD
 70
     0
  9
$DIMSAH
 70
     0
  9
$DIMBLK1
  1

  9
$DIMBLK2
  1

  9
$DIMSTYLE
  2
STANDARD
  9
$DIMCLRD
 70
     0
  9
$DIMCLRE
 70
     0
  9
$DIMCLRT
 70
     0
  9
$DIMTFAC
 40
1.0
  9
$DIMGAP
 40
10.0
  9
$LUNITS
 70
     2
  9
$LUPREC
 70
     4
  9
$SKETCHINC
 40
0.1
  9
$FILLETRAD
 40
100.0
  9
$AUNITS
 70
     0
  9
$AUPREC
 70
     0
  9
$MENU
  1
acad
  9
$ELEVATION
 40
0.0
  9
$PELEVATION
 40
0.0
  9
$THICKNESS
 40
0.0
  9
$LIMCHECK
 70
     0
  9
$BLIPMODE
 70
     0
  9
$CHAMFERA
 40
0.0
  9
$CHAMFERB
 40
0.0
  9
$SKPOLY
 70
     0
  9
$TDCREATE
 40
2456743.5973998029
  9
$TDUPDATE
 40
2457851.4733912498
  9
$TDINDWG
 40
0.8690046644
  9
$TDUSRTIMER
 40
2456743.0362956938
  9
$USRTIMER
 70
     1
  9
$ANGBASE
 50
0.0
  9
$ANGDIR
 70
     0
  9
$PDMODE
 70
     1
  9
$PDSIZE
 40
0.0
  9
$PLINEWID
 40
0.0
  9
$COORDS
 70
     2
  9
$SPLFRAME
 70
     0
  9
$SPLINETYPE
 70
     6
  9
$SPLINESEGS
 70
     8
  9
$ATTDIA
 70
     0
  9
$ATTREQ
 70
     1
  9
$HANDLING
 70
     1
  9
$HANDSEED
  5
BFD6
  9
$SURFTAB1
 70
     6
  9
$SURFTAB2
 70
     6
  9
$SURFTYPE
 70
     6
  9
$SURFU
 70
     6
  9
$SURFV
 70
     6
  9
$UCSNAME
  2

  9
$UCSORG
 10
0.0
 20
0.0
 30
0.0
  9
$UCSXDIR
 10
1.0
 20
0.0
 30
0.0
  9
$UCSYDIR
 10
0.0
 20
1.0
 30
0.0
  9
$PUCSNAME
  2

  9
$PUCSORG
 10
0.0
 20
0.0
 30
0.0
  9
$PUCSXDIR
 10
1.0
 20
0.0
 30
0.0
  9
$PUCSYDIR
 10
0.0
 20
1.0
 30
0.0
  9
$USERI1
 70
     0
  9
$USERI2
 70
     0
  9
$USERI3
 70
     0
  9
$USERI4
 70
     0
  9
$USERI5
 70
     0
  9
$USERR1
 40
0.0
  9
$USERR2
 40
0.0
  9
$USERR3
 40
0.0
  9
$USERR4
 40
0.0
  9
$USERR5
 40
0.0
  9
$WORLDVIEW
 70
     1
  9
$SHADEDGE
 70
     3
  9
$SHADEDIF
 70
    70
  9
$TILEMODE
 70
     1
  9
$MAXACTVP
 70
    16
  9
$PLIMCHECK
 70
     0
  9
$PEXTMIN
 10
29.066066288948051
 20
20.366566777229309
 30
0.0
  9
$PEXTMAX
 10
261.5945966005325
 20
183.29910099506381
 30
0.0
  9
$PLIMMIN
 10
-3.17498779296875
 20
-3.1749999523162842
  9
$PLIMMAX
 10
293.83566284179687
 20
206.8406708240509
  9
$UNITMODE
 70
     0
  9
$VISRETAIN
 70
     0
  9
$PLINEGEN
 70
     1
  9
$PSLTSCALE
 70
     0
  0
ENDSEC
  0
SECTION
  2
TABLES
  0
TABLE
  2
VPORT
 70
     1
  0
VPORT
  2
*ACTIVE
 70
     0
 10
0.0
 20
0.0
 11
1.0
 21
1.0
 12
6097.9622635654378
 22
815.71475047818205
 13
0.0
 23
0.0
 14
1.0
 24
1.0
 15
0.0
 25
0.0
 16
0.0
 26
0.0
 36
1.0
 17
0.0
 27
0.0
 37
0.0
 40
3966.5117254448569
 41
2.197368421052631
 42
50.0
 43
0.0
 44
0.0
 50
0.0
 51
0.0
 71
    16
 72
   100
 73
     1
 74
     1
 75
     0
 76
     0
 77
     0
 78
     0
  0
ENDTAB
  0
TABLE
  2
LTYPE
 70
     2
  0
LTYPE
  2
CONTINUOUS
 70
     0
  3
Solid line
 72
    65
 73
     0
 40
0.0
  0
ENDTAB
  0
TABLE
  2
LAYER
 70
     6
  0
LAYER
  2
0
 70
     0
 62
     7
  6
CONTINUOUS
  0
LAYER
  2
DEFPOINTS
 70
     0
 62
     7
  6
CONTINUOUS
  0
LAYER
  2
用紙枠
 70
     0
 62
     7
  6
CONTINUOUS
  0
LAYER
  2
図面枠
 70
     0
 62
     7
  6
CONTINUOUS
  0
LAYER
  2
-器具-1
 70
     0
 62
     4
  6
CONTINUOUS
  0
LAYER
  2
建築図
 70
     0
 62
     3
  6
CONTINUOUS
  0
ENDTAB
  0
TABLE
  2
STYLE
 70
     3
  0
STYLE
  2
STANDARD
 70
     0
 40
0.0
 41
1.0
 50
0.0
 71
     0
 42
0.0
  3
txt
  4

  0
STYLE
  2
スタイル
 70
     0
 40
2.5
 41
1.0
 50
0.0
 71
     0
 42
2.5
  3
txt
  4

  0
ENDTAB
  0
TABLE
  2
VIEW
 70
     4
  0
ENDTAB
  0
TABLE
  2
UCS
 70
     0
  0
ENDTAB
  0
TABLE
  2
APPID
 70
    21
  0
APPID
  2
ACAD
 70
     0
  0
APPID
  2
ACAD_EXEMPT_FROM_CAD_STANDARDS
 70
     0
  0
APPID
  2
ACAD_DSTYLE_DIMJAG
 70
     0
  0
APPID
  2
ACAD_DSTYLE_DIMTALN
 70
     0
  0
APPID
  2
ACAD_NAV_VCDISPLAY
 70
     0
  0
APPID
  2
ACAD_PSEXT
 70
     0
  0
APPID
  2
ACADANNOTATIVE
 70
     0
  0
APPID
  2
ACAECLAYERSTANDARD
 70
     0
  0
APPID
  2
ACCMTRANSPARENCY
 70
     0
  0
APPID
  2
ACADANNOAV
 70
     0
  0
APPID
  2
ACADANNOPO
 70
     0
  0
APPID
  2
ACAD_MLEADERVER
 70
     0
  0
APPID
  2
ACADSTRINGINFO
 70
     0
  0
APPID
  2
ACAD_DSTYLE_DIMBREAK
 70
     0
  0
APPID
  2
PLOTTRANSPARENCY
 70
     0
  0
APPID
  2
ACDBDYNAMICBLOCKGUID
 70
     0
  0
APPID
  2
ACAUTHENVIRON
 70
     0
  0
APPID
  2
ACLAYERTOOLS
 70
     0
  0
APPID
  2
ACDBDYNAMICBLOCKTRUENAME
 70
     0
  0
APPID
  2
GRADIENTCOLOR1ACI
 70
     0
  0
APPID
  2
GRADIENTCOLOR2ACI
 70
     0
  0
ENDTAB
  0
TABLE
  2
DIMSTYLE
 70
     3
  0
DIMSTYLE
  2
STANDARD
 70
     0
  3

  4

  5
OPEN
  6

  7

 40
1.0
 41
35.0
 42
0.0625
 43
10.0
 44
0.18
 45
0.0
 46
0.0
 47
0.0
 48
0.0
140
35.0
141
0.09
142
0.0
143
25.399999999999999
144
1.0
145
0.0
146
1.0
147
10.0
 71
     0
 72
     0
 73
     0
 74
     0
 75
     0
 76
     0
 77
     3
 78
     0
170
     0
171
     2
172
     0
173
     0
174
     0
175
     0
176
     0
177
     0
178
     0
  0
DIMSTYLE
  2
DIM-100
 70
     0
  3

  4

  5

  6

  7

 40
1.0
 41
0.18
 42
0.0625
 43
0.38
 44
0.18
 45
0.0
 46
0.0
 47
0.0
 48
0.0
140
0.18
141
0.09
142
0.0
143
25.399999999999999
144
1.0
145
0.0
146
1.0
147
0.09
 71
     0
 72
     0
 73
     1
 74
     1
 75
     0
 76
     0
 77
     0
 78
     0
170
     0
171
     2
172
     0
173
     0
174
     0
175
     0
176
     0
177
     0
178
     0
  0
ENDTAB
  0
ENDSEC
  0
SECTION
  2
BLOCKS
  0
BLOCK
  8
0
  2
$MODEL_SPACE
 70
     0
 10
0.0
 20
0.0
 30
0.0
  3
$MODEL_SPACE
  1

  0
ENDBLK
  5
E
  8
0
  0
BLOCK
 67
     1
  8
0
  2
$PAPER_SPACE
 70
     0
 10
0.0
 20
0.0
 30
0.0
  3
$PAPER_SPACE
  1

  0
ENDBLK
  5
10
 67
     1
  8
0
  0
BLOCK
  8
0
  2
_OPEN
 70
     0
 10
0.0
 20
0.0
 30
0.0
  3
_OPEN
  1

  0
LINE
  5
AB0
  8
0
  6
BYBLOCK
 62
     0
 10
-1.0
 20
0.1666666666666666
 30
0.0
 11
0.0
 21
0.0
 31
0.0
  0
LINE
  5
AB1
  8
0
  6
BYBLOCK
 62
     0
 10
-1.0
 20
-0.1666666666666666
 30
0.0
 11
0.0
 21
0.0
 31
0.0
  0
LINE
  5
AB2
  8
0
  6
BYBLOCK
 62
     0
 10
0.0
 20
0.0
 30
0.0
 11
-1.0
 21
0.0
 31
0.0
  0
ENDBLK
  5
AB4
  8
0
  0
BLOCK
  8
0
  2
_CLOSED
 70
     0
 10
0.0
 20
0.0
 30
0.0
  3
_CLOSED
  1

  0
LINE
  5
AB6
  8
0
  6
BYBLOCK
 62
     0
 10
-1.0
 20
0.1666666666666666
 30
0.0
 11
0.0
 21
0.0
 31
0.0
  0
LINE
  5
AB7
  8
0
  6
BYBLOCK
 62
     0
 10
0.0
 20
0.0
 30
0.0
 11
-1.0
 21
-0.1666666666666666
 31
0.0
  0
LINE
  5
AB8
  8
0
  6
BYBLOCK
 62
     0
 10
-1.0
 20
0.1666666666666666
 30
0.0
 11
-1.0
 21
-0.1666666666666666
 31
0.0
  0
LINE
  5
AB9
  8
0
  6
BYBLOCK
 62
     0
 10
0.0
 20
0.0
 30
0.0
 11
-1.0
 21
0.0
 31
0.0
  0
ENDBLK
  5
ABB
  8
0
  0
BLOCK
  8
0
  2
_DOT
 70
     0
 10
0.0
 20
0.0
 30
0.0
  3
_DOT
  1

  0
POLYLINE
  5
B466
  8
0
  6
BYBLOCK
 62
     0
 66
     1
 10
0.0
 20
0.0
 30
0.0
 70
     1
 40
0.5
 41
0.5
  0
VERTEX
  5
BFC7
  8
0
  6
BYBLOCK
 62
     0
 10
-0.25
 20
0.0
 30
0.0
 42
1.0
  0
VERTEX
  5
BFC8
  8
0
  6
BYBLOCK
 62
     0
 10
0.25
 20
0.0
 30
0.0
 42
1.0
  0
SEQEND
  5
BFC9
  8
0
  6
BYBLOCK
 62
     0
  0
LINE
  5
B467
  8
0
  6
BYBLOCK
 62
     0
 10
-0.5
 20
0.0
 30
0.0
 11
-1.0
 21
0.0
 31
0.0
  0
ENDBLK
  5
B468
  8
0
  0
ENDSEC
  0
SECTION
  2
ENTITIES
  0
LINE
  5
B284
  8
0
 62
     8
 10
1842.5
 20
1271.6943787762109
 30
0.0
 11
1842.5
 21
1271.6943787762109
 31
0.0
  0
POINT
  5
B8BA
  8
-器具-1
 10
-2259.6017435402869
 20
800.70291519324564
 30
0.0
  0
POINT
  5
B8BB
  8
-器具-1
 10
-2237.0528348373741
 20
800.70291519324564
 30
0.0
  0
LINE
  5
BB9F
  8
0
 62
     7
 10
4847.0883368488539
 20
1421.2775685129229
 30
0.0
 11
4847.0883368488539
 21
651.27756851292986
 31
0.0
  0
ARC
  5
BBA0
  8
0
 62
     7
 10
4877.0883368488539
 20
1421.2775685129229
 30
0.0
 40
30.0
 50
90.0
 51
180.0
  0
LINE
  5
BBA1
  8
0
 62
     7
 10
4876.8608894291347
 20
541.2775685129227
 30
0.0
 11
4966.3261811625816
 21
541.2775685129227
 31
0.0
  0
LINE
  5
BBA2
  8
0
 62
     7
 10
4876.8608894291347
 20
543.2775685129227
 30
0.0
 11
4966.3261811625816
 21
543.2775685129227
 31
0.0
  0
ARC
  5
BBA3
  8
0
 62
     7
 10
4966.3261811625816
 20
544.2775685129227
 30
0.0
 40
3.0
 50
270.0
 51
0.0
  0
ARC
  5
BBA4
  8
0
 62
     7
 10
4966.3261811625816
 20
544.2775685129227
 30
0.0
 40
1.0
 50
270.0
 51
0.0
  0
ARC
  5
BBA5
  8
0
 62
     7
 10
4876.8608894291347
 20
544.2775685129227
 30
0.0
 40
3.0
 50
180.0
 51
270.0
  0
ARC
  5
BBA6
  8
0
 62
     7
 10
4876.8608894291347
 20
544.2775685129227
 30
0.0
 40
1.0
 50
180.0
 51
270.0
  0
LINE
  5
BBA7
  8
0
 62
     7
 10
4877.0883368488539
 20
1451.2775685129229
 30
0.0
 11
5597.0883368488539
 21
1451.2775685129229
 31
0.0
  0
LINE
  5
BBA8
  8
0
 62
     7
 10
5627.0883368488539
 20
1421.2775685129229
 30
0.0
 11
5627.0883368488539
 21
651.27756851292986
 31
0.0
  0
ARC
  5
BBA9
  8
0
 62
     7
 10
5597.0883368488539
 20
1421.2775685129229
 30
0.0
 40
30.0
 50
0.0
 51
90.0
  0
LINE
  5
BBAA
  8
0
 62
     7
 10
4858.0501886414677
 20
651.27756851292986
 30
0.0
 11
4858.0501886414377
 21
634.27756851292986
 31
0.0
  0
LINE
  5
BBAB
  8
0
 62
     7
 10
4873.8608894291356
 20
631.27756851292997
 30
0.0
 11
4873.8608894291356
 21
544.2775685129227
 31
0.0
  0
LINE
  5
BBAC
  8
0
 62
     7
 10
4875.8608894291347
 20
622.2775685129227
 30
0.0
 11
4875.8608894291347
 21
544.2775685129227
 31
0.0
  0
LINE
  5
BBAD
  8
0
 62
     7
 10
4880.8608894291347
 20
627.2775685129227
 30
0.0
 11
4875.8608894291347
 21
622.2775685129227
 31
0.0
  0
LINE
  5
BBAE
  8
0
 62
     7
 10
4969.3261811625816
 20
631.27756851291542
 30
0.0
 11
4969.3261811625816
 21
544.2775685129227
 31
0.0
  0
LINE
  5
BBAF
  8
0
 62
     7
 10
4967.3261811626107
 20
620.27756851292986
 30
0.0
 11
4967.3261811625816
 21
544.2775685129227
 31
0.0
  0
LINE
  5
BBB0
  8
0
 62
     7
 10
4962.3261811626107
 20
625.27756851292986
 30
0.0
 11
4967.3261811626107
 21
620.27756851292986
 31
0.0
  0
LINE
  5
BBB1
  8
0
 62
     7
 10
4861.0501886414386
 20
631.2775685129227
 30
0.0
 11
5613.1264850562702
 21
631.27756851291542
 31
0.0
  0
ARC
  5
BBB2
  8
0
 62
     7
 10
4861.0501886414386
 20
634.27756851292258
 30
0.0
 40
3.0
 50
180.0
 51
270.0
  0
LINE
  5
BBB3
  8
0
 62
     7
 10
4847.0883368488539
 20
651.27756851292986
 30
0.0
 11
5627.0883368488539
 21
651.27756851292986
 31
0.0
  0
CIRCLE
  5
BBB4
  8
0
 62
     7
 10
4893.981302389725
 20
644.36181687161934
 30
0.0
 40
3.7291313438327052
  0
CIRCLE
  5
BBB5
  8
0
 62
     7
 10
4893.981302389725
 20
644.36181687161934
 30
0.0
 40
2.7291313438327052
  0
CIRCLE
  5
BBB6
  8
0
 62
     7
 10
4897.6237021944507
 20
659.78656110473003
 30
0.0
 40
5.8100386077421708
  0
LINE
  5
BBB7
  8
0
 62
     7
 10
4853.0501886414677
 20
645.96905815529215
 30
0.0
 11
4853.0501886414386
 21
640.17245418800212
 31
0.0
  0
LINE
  5
BBB8
  8
0
 62
     7
 10
4856.0501886414386
 20
637.17245418799484
 30
0.0
 11
4858.0501886414377
 21
637.17245418799484
 31
0.0
  0
ARC
  5
BBB9
  8
0
 62
     7
 10
4856.0501886414386
 20
640.17245418799484
 30
0.0
 40
3.0
 50
180.0
 51
270.0
  0
LINE
  5
BBBA
  8
0
 62
     7
 10
4856.0501886414386
 20
648.96905815528487
 30
0.0
 11
4858.0501886414377
 21
648.96905815528487
 31
0.0
  0
ARC
  5
BBBB
  8
0
 62
     7
 10
4856.0501886414386
 20
645.96905815528487
 30
0.0
 40
3.0
 50
90.0
 51
180.0
  0
LINE
  5
BBBC
  8
0
 62
     7
 10
4843.0883368488821
 20
663.17813940488759
 30
0.0
 11
4843.0883368488539
 21
657.38153543759745
 31
0.0
  0
LINE
  5
BBBD
  8
0
 62
     7
 10
4846.0883368488539
 20
654.38153543759006
 30
0.0
 11
4847.0883368488539
 21
654.38153543759006
 31
0.0
  0
ARC
  5
BBBE
  8
0
 62
     7
 10
4846.0883368488539
 20
657.38153543759006
 30
0.0
 40
3.0
 50
180.0
 51
270.0
  0
LINE
  5
BBBF
  8
0
 62
     7
 10
4846.0883368488539
 20
666.1781394048802
 30
0.0
 11
4847.0883368488539
 21
666.1781394048802
 31
0.0
  0
ARC
  5
BBC0
  8
0
 62
     7
 10
4846.0883368488539
 20
663.17813940488031
 30
0.0
 40
3.0
 50
90.0
 51
180.0
  0
CIRCLE
  5
BBC1
  8
0
 62
     7
 10
5036.631026249288
 20
644.36181687161934
 30
0.0
 40
3.7291313438327052
  0
CIRCLE
  5
BBC2
  8
0
 62
     7
 10
5036.631026249288
 20
644.36181687161934
 30
0.0
 40
2.7291313438327052
  0
LINE
  5
BBC3
  8
0
 62
     7
 10
4919.8490425450991
 20
629.27756851292258
 30
0.0
 11
4945.8047994170302
 21
629.27756851292986
 31
0.0
  0
LINE
  5
BBC4
  8
0
 62
     7
 10
4880.8608894291347
 20
627.2775685129227
 30
0.0
 11
4901.0637109345662
 21
627.2775685129227
 31
0.0
  0
LINE
  5
BBC5
  8
0
 62
     7
 10
4914.1601004117083
 20
627.2775685129227
 30
0.0
 11
4919.8490425450991
 21
627.2775685129227
 31
0.0
  0
LINE
  5
BBC6
  8
0
 62
     7
 10
4945.8047994170302
 20
627.2775685129227
 30
0.0
 11
4951.6122525916398
 21
627.2775685129227
 31
0.0
  0
LINE
  5
BBC7
  8
0
 62
     7
 10
4945.8047994170302
 20
629.27756851291542
 30
0.0
 11
4945.8047994170593
 21
627.2775685129227
 31
0.0
  0
LINE
  5
BBC8
  8
0
 62
     7
 10
4901.0637109345662
 20
625.27756851291542
 30
0.0
 11
4914.1601004116783
 21
625.27756851292258
 31
0.0
  0
LINE
  5
BBC9
  8
0
 62
     7
 10
4951.6122525916398
 20
625.27756851292258
 30
0.0
 11
4962.3261811626107
 21
625.27756851292986
 31
0.0
  0
LINE
  5
BBCA
  8
0
 62
     7
 10
4919.8490425451273
 20
629.27756851292258
 30
0.0
 11
4919.8490425451273
 21
627.27756851291542
 31
0.0
  0
LINE
  5
BBCB
  8
0
 62
     7
 10
4914.1601004117083
 20
627.2775685129227
 30
0.0
 11
4914.1601004117083
 21
625.27756851292258
 31
0.0
  0
LINE
  5
BBCC
  8
0
 62
     7
 10
4901.0637109345662
 20
627.2775685129227
 30
0.0
 11
4901.0637109345662
 21
625.27756851291542
 31
0.0
  0
LINE
  5
BBCD
  8
0
 62
     7
 10
4951.6122525916398
 20
627.2775685129227
 30
0.0
 11
4951.6122525916398
 21
625.27756851292258
 31
0.0
  0
LINE
  5
BBCE
  8
0
 62
     7
 10
5597.3157842685723
 20
541.2775685129227
 30
0.0
 11
5507.8504925351263
 21
541.2775685129227
 31
0.0
  0
LINE
  5
BBCF
  8
0
 62
     7
 10
5597.3157842685723
 20
543.2775685129227
 30
0.0
 11
5507.8504925351263
 21
543.2775685129227
 31
0.0
  0
ARC
  5
BBD0
  8
0
 62
     7
 10
5507.8504925351263
 20
544.2775685129227
 30
0.0
 40
3.0
 50
180.0
 51
270.0
  0
ARC
  5
BBD1
  8
0
 62
     7
 10
5507.8504925351263
 20
544.2775685129227
 30
0.0
 40
1.0
 50
180.0
 51
270.0
  0
ARC
  5
BBD2
  8
0
 62
     7
 10
5597.3157842685723
 20
544.2775685129227
 30
0.0
 40
3.0
 50
270.0
 51
0.0
  0
ARC
  5
BBD3
  8
0
 62
     7
 10
5597.3157842685723
 20
544.2775685129227
 30
0.0
 40
1.0
 50
270.0
 51
0.0
  0
LINE
  5
BBD4
  8
0
 62
     7
 10
5616.1264850562402
 20
651.27756851292986
 30
0.0
 11
5616.1264850562702
 21
634.27756851292986
 31
0.0
  0
LINE
  5
BBD5
  8
0
 62
     7
 10
5600.3157842685723
 20
631.27756851292997
 30
0.0
 11
5600.3157842685723
 21
544.2775685129227
 31
0.0
  0
LINE
  5
BBD6
  8
0
 62
     7
 10
5598.3157842685732
 20
622.2775685129227
 30
0.0
 11
5598.3157842685732
 21
544.2775685129227
 31
0.0
  0
LINE
  5
BBD7
  8
0
 62
     7
 10
5593.3157842685723
 20
627.2775685129227
 30
0.0
 11
5598.3157842685732
 21
622.2775685129227
 31
0.0
  0
LINE
  5
BBD8
  8
0
 62
     7
 10
5504.8504925351263
 20
631.27756851291542
 30
0.0
 11
5504.8504925351263
 21
544.2775685129227
 31
0.0
  0
LINE
  5
BBD9
  8
0
 62
     7
 10
5506.8504925350971
 20
620.27756851292986
 30
0.0
 11
5506.8504925351263
 21
544.2775685129227
 31
0.0
  0
LINE
  5
BBDA
  8
0
 62
     7
 10
5511.8504925350971
 20
625.27756851292986
 30
0.0
 11
5506.8504925350971
 21
620.27756851292986
 31
0.0
  0
ARC
  5
BBDB
  8
0
 62
     7
 10
5613.1264850562702
 20
634.27756851292258
 30
0.0
 40
3.0
 50
270.0
 51
0.0
  0
CIRCLE
  5
BBDC
  8
0
 62
     7
 10
5520.0083110228261
 20
644.36181687161934
 30
0.0
 40
3.7291313438327052
  0
CIRCLE
  5
BBDD
  8
0
 62
     7
 10
5520.0083110228261
 20
644.36181687161934
 30
0.0
 40
2.7291313438327052
  0
CIRCLE
  5
BBDE
  8
0
 62
     7
 10
5576.5529715032571
 20
659.78656110473003
 30
0.0
 40
5.8100386077421708
  0
LINE
  5
BBDF
  8
0
 62
     7
 10
5621.1264850562402
 20
645.96905815529215
 30
0.0
 11
5621.1264850562693
 21
640.17245418800212
 31
0.0
  0
LINE
  5
BBE0
  8
0
 62
     7
 10
5618.1264850562693
 20
637.17245418799484
 30
0.0
 11
5616.1264850562702
 21
637.17245418799484
 31
0.0
  0
ARC
  5
BBE1
  8
0
 62
     7
 10
5618.1264850562693
 20
640.17245418799484
 30
0.0
 40
3.0
 50
270.0
 51
0.0
  0
LINE
  5
BBE2
  8
0
 62
     7
 10
5618.1264850562693
 20
648.96905815528487
 30
0.0
 11
5616.1264850562702
 21
648.96905815528487
 31
0.0
  0
ARC
  5
BBE3
  8
0
 62
     7
 10
5618.1264850562693
 20
645.96905815528487
 30
0.0
 40
3.0
 50
0.0
 51
90.0
  0
LINE
  5
BBE4
  8
0
 62
     7
 10
5631.0883368488248
 20
663.17813940488759
 30
0.0
 11
5631.0883368488539
 21
657.38153543759745
 31
0.0
  0
LINE
  5
BBE5
  8
0
 62
     7
 10
5628.0883368488539
 20
654.38153543759006
 30
0.0
 11
5627.0883368488539
 21
654.38153543759006
 31
0.0
  0
ARC
  5
BBE6
  8
0
 62
     7
 10
5628.0883368488539
 20
657.38153543759006
 30
0.0
 40
3.0
 50
270.0
 51
0.0
  0
LINE
  5
BBE7
  8
0
 62
     7
 10
5628.0883368488539
 20
666.1781394048802
 30
0.0
 11
5627.0883368488539
 21
666.1781394048802
 31
0.0
  0
ARC
  5
BBE8
  8
0
 62
     7
 10
5628.0883368488539
 20
663.17813940488031
 30
0.0
 40
3.0
 50
0.0
 51
90.0
  0
LINE
  5
BBE9
  8
0
 62
     7
 10
5554.3276311526088
 20
629.27756851292258
 30
0.0
 11
5528.3718742806768
 21
629.27756851292986
 31
0.0
  0
LINE
  5
BBEA
  8
0
 62
     7
 10
5593.3157842685723
 20
627.2775685129227
 30
0.0
 11
5573.1129627631417
 21
627.2775685129227
 31
0.0
  0
LINE
  5
BBEB
  8
0
 62
     7
 10
5560.0165732859996
 20
627.2775685129227
 30
0.0
 11
5554.3276311526088
 21
627.2775685129227
 31
0.0
  0
LINE
  5
BBEC
  8
0
 62
     7
 10
5528.3718742806768
 20
627.2775685129227
 30
0.0
 11
5522.564421106068
 21
627.2775685129227
 31
0.0
  0
LINE
  5
BBED
  8
0
 62
     7
 10
5528.3718742806768
 20
629.27756851291542
 30
0.0
 11
5528.3718742806477
 21
627.2775685129227
 31
0.0
  0
LINE
  5
BBEE
  8
0
 62
     7
 10
5573.1129627631417
 20
625.27756851291542
 30
0.0
 11
5560.0165732860296
 21
625.27756851292258
 31
0.0
  0
LINE
  5
BBEF
  8
0
 62
     7
 10
5522.564421106068
 20
625.27756851292258
 30
0.0
 11
5511.8504925350971
 21
625.27756851292986
 31
0.0
  0
LINE
  5
BBF0
  8
0
 62
     7
 10
5554.3276311525806
 20
629.27756851292258
 30
0.0
 11
5554.3276311525806
 21
627.27756851291542
 31
0.0
  0
LINE
  5
BBF1
  8
0
 62
     7
 10
5560.0165732859996
 20
627.2775685129227
 30
0.0
 11
5560.0165732859996
 21
625.27756851292258
 31
0.0
  0
LINE
  5
BBF2
  8
0
 62
     7
 10
5573.1129627631417
 20
627.2775685129227
 30
0.0
 11
5573.1129627631417
 21
625.27756851291542
 31
0.0
  0
LINE
  5
BBF3
  8
0
 62
     7
 10
5522.564421106068
 20
627.2775685129227
 30
0.0
 11
5522.564421106068
 21
625.27756851292258
 31
0.0
  0
LINE
  5
BBF4
  8
0
 62
     7
 10
5630.0883368488539
 20
1211.3800041159909
 30
0.0
 11
5667.16521713571
 21
1177.9869096401219
 31
0.0
  0
LINE
  5
BBF5
  8
0
 62
     7
 10
5677.0883368488539
 20
1155.695232315453
 30
0.0
 11
5677.0883368488539
 21
929.43048605436979
 31
0.0
  0
ARC
  5
BBF6
  8
0
 62
     7
 10
5647.0883368488539
 20
1155.695232315453
 30
0.0
 40
30.0
 50
0.0
 51
47.992387049049533
  0
LINE
  5
BBF7
  8
0
 62
     7
 10
5627.0883368488539
 20
929.43048605436263
 30
0.0
 11
5677.0883368488539
 21
929.43048605436979
 31
0.0
  0
LINE
  5
BBF8
  8
0
 62
     7
 10
4843.0883368488821
 20
954.03185784648565
 30
0.0
 11
4843.0883368488539
 21
948.23525387919551
 31
0.0
  0
LINE
  5
BBF9
  8
0
 62
     7
 10
4846.0883368488539
 20
945.23525387918835
 30
0.0
 11
4847.0883368488539
 21
945.23525387918835
 31
0.0
  0
ARC
  5
BBFA
  8
0
 62
     7
 10
4846.0883368488539
 20
948.23525387918835
 30
0.0
 40
3.0
 50
180.0
 51
270.0
  0
LINE
  5
BBFB
  8
0
 62
     7
 10
4846.0883368488539
 20
957.03185784647849
 30
0.0
 11
4847.0883368488539
 21
957.03185784647849
 31
0.0
  0
ARC
  5
BBFC
  8
0
 62
     7
 10
4846.0883368488539
 20
954.03185784647837
 30
0.0
 40
3.0
 50
90.0
 51
180.0
  0
LINE
  5
BBFD
  8
0
 62
     7
 10
4843.0883368488821
 20
1364.107477520635
 30
0.0
 11
4843.0883368488539
 21
1358.3108735533449
 31
0.0
  0
LINE
  5
BBFE
  8
0
 62
     7
 10
4846.0883368488539
 20
1355.3108735533381
 30
0.0
 11
4847.0883368488539
 21
1355.3108735533381
 31
0.0
  0
ARC
  5
BBFF
  8
0
 62
     7
 10
4846.0883368488539
 20
1358.3108735533381
 30
0.0
 40
3.0
 50
180.0
 51
270.0
  0
LINE
  5
BC00
  8
0
 62
     7
 10
4846.0883368488539
 20
1367.107477520628
 30
0.0
 11
4847.0883368488539
 21
1367.107477520628
 31
0.0
  0
ARC
  5
BC01
  8
0
 62
     7
 10
4846.0883368488539
 20
1364.107477520628
 30
0.0
 40
3.0
 50
90.0
 51
180.0
  0
LINE
  5
BC02
  8
0
 62
     7
 10
4843.0883368488821
 20
1414.617482975088
 30
0.0
 11
4843.0883368488539
 21
1408.8208790077981
 31
0.0
  0
LINE
  5
BC03
  8
0
 62
     7
 10
4846.0883368488539
 20
1405.8208790077899
 30
0.0
 11
4847.0883368488539
 21
1405.8208790077899
 31
0.0
  0
ARC
  5
BC04
  8
0
 62
     7
 10
4846.0883368488539
 20
1408.8208790077899
 30
0.0
 40
3.0
 50
180.0
 51
270.0
  0
LINE
  5
BC05
  8
0
 62
     7
 10
4846.0883368488539
 20
1417.617482975081
 30
0.0
 11
4847.0883368488539
 21
1417.617482975081
 31
0.0
  0
ARC
  5
BC06
  8
0
 62
     7
 10
4846.0883368488539
 20
1414.617482975081
 30
0.0
 40
3.0
 50
90.0
 51
180.0
  0
LINE
  5
BC07
  8
0
 62
     7
 10
5631.0883368488248
 20
1364.107477520635
 30
0.0
 11
5631.0883368488539
 21
1358.3108735533449
 31
0.0
  0
LINE
  5
BC08
  8
0
 62
     7
 10
5628.0883368488539
 20
1355.3108735533381
 30
0.0
 11
5627.0883368488539
 21
1355.3108735533381
 31
0.0
  0
ARC
  5
BC09
  8
0
 62
     7
 10
5628.0883368488539
 20
1358.3108735533381
 30
0.0
 40
3.0
 50
270.0
 51
0.0
  0
LINE
  5
BC0A
  8
0
 62
     7
 10
5628.0883368488539
 20
1367.107477520628
 30
0.0
 11
5627.0883368488539
 21
1367.107477520628
 31
0.0
  0
ARC
  5
BC0B
  8
0
 62
     7
 10
5628.0883368488539
 20
1364.107477520628
 30
0.0
 40
3.0
 50
0.0
 51
90.0
  0
LINE
  5
BC0C
  8
0
 62
     7
 10
5631.0883368488248
 20
1414.617482975088
 30
0.0
 11
5631.0883368488539
 21
1408.8208790077981
 31
0.0
  0
LINE
  5
BC0D
  8
0
 62
     7
 10
5628.0883368488539
 20
1405.8208790077899
 30
0.0
 11
5627.0883368488539
 21
1405.8208790077899
 31
0.0
  0
ARC
  5
BC0E
  8
0
 62
     7
 10
5628.0883368488539
 20
1408.8208790077899
 30
0.0
 40
3.0
 50
270.0
 51
0.0
  0
LINE
  5
BC0F
  8
0
 62
     7
 10
5628.0883368488539
 20
1417.617482975081
 30
0.0
 11
5627.0883368488539
 21
1417.617482975081
 31
0.0
  0
ARC
  5
BC10
  8
0
 62
     7
 10
5628.0883368488539
 20
1414.617482975081
 30
0.0
 40
3.0
 50
0.0
 51
90.0
  0
LINE
  5
BC11
  8
0
 62
     7
 10
5631.0883368488248
 20
1310.4325700753971
 30
0.0
 11
5631.0883368488539
 21
1304.6359661081069
 31
0.0
  0
LINE
  5
BC12
  8
0
 62
     7
 10
5628.0883368488539
 20
1301.6359661081001
 30
0.0
 11
5627.0883368488539
 21
1301.6359661081001
 31
0.0
  0
ARC
  5
BC13
  8
0
 62
     7
 10
5628.0883368488539
 20
1304.635966108099
 30
0.0
 40
3.0
 50
270.0
 51
0.0
  0
LINE
  5
BC14
  8
0
 62
     7
 10
5628.0883368488539
 20
1313.43257007539
 30
0.0
 11
5627.0883368488539
 21
1313.43257007539
 31
0.0
  0
ARC
  5
BC15
  8
0
 62
     7
 10
5628.0883368488539
 20
1310.43257007539
 30
0.0
 40
3.0
 50
0.0
 51
90.0
  0
LINE
  5
BC16
  8
0
 62
     7
 10
5630.0883368488539
 20
1224.2602911040799
 30
0.0
 11
5630.0883368488539
 21
929.43048605436263
 31
0.0
  0
LINE
  5
BC17
  8
0
 62
     7
 10
5627.0883368488239
 20
1224.260291104066
 30
0.0
 11
5630.0883368488248
 21
1224.260291104066
 31
0.0
  0
LINE
  5
BC18
  8
0
 62
     7
 10
5118.2005833594558
 20
1165.789226930784
 30
0.0
 11
5355.9760903382239
 21
1165.789226930784
 31
0.0
  0
LINE
  5
BC19
  8
0
 62
     7
 10
5116.2005833594549
 20
1160.789226930784
 30
0.0
 11
5357.9760903382221
 21
1160.789226930784
 31
0.0
  0
ARC
  5
BC1A
  8
0
 62
     7
 10
5116.2005833594549
 20
1157.789226930784
 30
0.0
 40
3.0
 50
90.0
 51
270.0
  0
LINE
  5
BC1B
  8
0
 62
     7
 10
5116.2005833594549
 20
1154.789226930784
 30
0.0
 11
5357.9760903382221
 21
1154.789226930784
 31
0.0
  0
ARC
  5
BC1C
  8
0
 62
     7
 10
5357.9760903382221
 20
1157.789226930784
 30
0.0
 40
3.0
 50
270.0
 51
90.0
  0
LINE
  5
BC1D
  8
0
 62
     7
 10
5118.2005833594558
 20
1149.789226930784
 30
0.0
 11
5355.9760903382239
 21
1149.789226930784
 31
0.0
  0
ARC
  5
BC1E
  8
0
 62
     7
 10
5118.2005833594558
 20
1157.789226930784
 30
0.0
 40
8.0
 50
90.0
 51
270.0
  0
ARC
  5
BC1F
  8
0
 62
     7
 10
5355.9760903382239
 20
1157.789226930784
 30
0.0
 40
8.0
 50
270.0
 51
90.0
  0
LINE
  5
BC20
  8
0
 62
     7
 10
5118.2005833594558
 20
1085.789226930784
 30
0.0
 11
5355.9760903382239
 21
1085.789226930784
 31
0.0
  0
LINE
  5
BC21
  8
0
 62
     7
 10
5116.2005833594549
 20
1080.789226930784
 30
0.0
 11
5357.9760903382221
 21
1080.789226930784
 31
0.0
  0
ARC
  5
BC22
  8
0
 62
     7
 10
5116.2005833594549
 20
1077.789226930784
 30
0.0
 40
3.0
 50
90.0
 51
270.0
  0
LINE
  5
BC23
  8
0
 62
     7
 10
5116.2005833594549
 20
1074.789226930784
 30
0.0
 11
5357.9760903382221
 21
1074.789226930784
 31
0.0
  0
ARC
  5
BC24
  8
0
 62
     7
 10
5357.9760903382221
 20
1077.789226930784
 30
0.0
 40
3.0
 50
270.0
 51
90.0
  0
LINE
  5
BC25
  8
0
 62
     7
 10
5118.2005833594558
 20
1069.789226930784
 30
0.0
 11
5355.9760903382239
 21
1069.789226930784
 31
0.0
  0
ARC
  5
BC26
  8
0
 62
     7
 10
5118.2005833594558
 20
1077.789226930784
 30
0.0
 40
8.0
 50
90.0
 51
270.0
  0
ARC
  5
BC27
  8
0
 62
     7
 10
5355.9760903382239
 20
1077.789226930784
 30
0.0
 40
8.0
 50
270.0
 51
90.0
  0
LINE
  5
BC28
  8
0
 62
     7
 10
5118.2005833594558
 20
1005.789226930784
 30
0.0
 11
5355.9760903382239
 21
1005.789226930784
 31
0.0
  0
LINE
  5
BC29
  8
0
 62
     7
 10
5116.2005833594549
 20
1000.789226930784
 30
0.0
 11
5357.9760903382221
 21
1000.789226930784
 31
0.0
  0
ARC
  5
BC2A
  8
0
 62
     7
 10
5116.2005833594549
 20
997.78922693078403
 30
0.0
 40
3.0
 50
90.0
 51
270.0
  0
LINE
  5
BC2B
  8
0
 62
     7
 10
5116.2005833594549
 20
994.78922693078414
 30
0.0
 11
5357.9760903382221
 21
994.78922693078414
 31
0.0
  0
ARC
  5
BC2C
  8
0
 62
     7
 10
5357.9760903382221
 20
997.78922693078403
 30
0.0
 40
3.0
 50
270.0
 51
90.0
  0
LINE
  5
BC2D
  8
0
 62
     7
 10
5118.2005833594558
 20
989.78922693078403
 30
0.0
 11
5355.9760903382239
 21
989.78922693078403
 31
0.0
  0
ARC
  5
BC2E
  8
0
 62
     7
 10
5118.2005833594558
 20
997.78922693078403
 30
0.0
 40
8.0
 50
90.0
 51
270.0
  0
ARC
  5
BC2F
  8
0
 62
     7
 10
5355.9760903382239
 20
997.78922693078403
 30
0.0
 40
8.0
 50
270.0
 51
90.0
  0
LINE
  5
BC30
  8
0
 62
     7
 10
5118.2005833594558
 20
925.78922693078403
 30
0.0
 11
5355.9760903382239
 21
925.78922693078403
 31
0.0
  0
LINE
  5
BC31
  8
0
 62
     7
 10
5116.2005833594549
 20
920.78922693078414
 30
0.0
 11
5357.9760903382221
 21
920.78922693078414
 31
0.0
  0
ARC
  5
BC32
  8
0
 62
     7
 10
5116.2005833594549
 20
917.78922693078391
 30
0.0
 40
3.0
 50
90.0
 51
270.0
  0
LINE
  5
BC33
  8
0
 62
     7
 10
5116.2005833594549
 20
914.78922693078403
 30
0.0
 11
5357.9760903382221
 21
914.78922693078403
 31
0.0
  0
ARC
  5
BC34
  8
0
 62
     7
 10
5357.9760903382221
 20
917.78922693078391
 30
0.0
 40
3.0
 50
270.0
 51
90.0
  0
LINE
  5
BC35
  8
0
 62
     7
 10
5118.2005833594558
 20
909.78922693078391
 30
0.0
 11
5355.9760903382239
 21
909.78922693078391
 31
0.0
  0
ARC
  5
BC36
  8
0
 62
     7
 10
5118.2005833594558
 20
917.78922693078391
 30
0.0
 40
8.0
 50
90.0
 51
270.0
  0
ARC
  5
BC37
  8
0
 62
     7
 10
5355.9760903382239
 20
917.78922693078391
 30
0.0
 40
8.0
 50
270.0
 51
90.0
  0
LINE
  5
BC38
  8
0
 62
     7
 10
5830.870740106413
 20
631.27756851292997
 30
0.0
 11
6120.6799924075567
 21
631.27756851292997
 31
0.0
  0
LINE
  5
BC39
  8
0
 62
     7
 10
5827.0883368488539
 20
651.27756851292986
 30
0.0
 11
6127.0883368488539
 21
651.27756851292986
 31
0.0
  0
CIRCLE
  5
BC3A
  8
0
 62
     7
 10
5237.0883368488539
 20
659.78656110473003
 30
0.0
 40
5.8100386077421708
  0
LINE
  5
BC3B
  8
0
 62
     7
 10
5837.0883368488539
 20
1451.277568512915
 30
0.0
 11
6127.0883368488539
 21
1451.2775685129229
 31
0.0
  0
LINE
  5
BC3C
  8
0
 62
     7
 10
5827.0883368488539
 20
1421.27756851293
 30
0.0
 11
6127.0883368488539
 21
1421.2775685129229
 31
0.0
  0
LINE
  5
BC3D
  8
0
 62
     7
 10
5827.0883368488539
 20
1441.277568512915
 30
0.0
 11
5827.0883368488539
 21
651.27756851292986
 31
0.0
  0
ARC
  5
BC3E
  8
0
 62
     7
 10
5837.0883368488539
 20
1441.277568512915
 30
0.0
 40
10.0
 50
90.0
 51
180.0
  0
LINE
  5
BC3F
  8
0
 62
     7
 10
5830.870740106413
 20
631.27756851292997
 30
0.0
 11
5830.870740106413
 21
541.2775685129227
 31
0.0
  0
LINE
  5
BC40
  8
0
 62
     7
 10
5835.1366690229588
 20
1451.2775685129229
 30
0.0
 11
5835.1366690229006
 21
631.27756851292997
 31
0.0
  0
LINE
  5
BC41
  8
0
 62
     7
 10
5847.0883368488539
 20
1451.2775685129229
 30
0.0
 11
5847.0883368488539
 21
651.27756851292986
 31
0.0
  0
LINE
  5
BC42
  8
0
 62
     7
 10
5877.0883368488539
 20
1201.3800041159841
 30
0.0
 11
5877.0883368488539
 21
929.43048605436979
 31
0.0
  0
ARC
  5
BC43
  8
0
 62
     7
 10
5887.0883368488539
 20
1166.0079609093291
 30
0.0
 40
10.0
 50
90.0
 51
180.0
  0
ARC
  5
BC44
  8
0
 62
     7
 10
5887.0883368488539
 20
1201.3800041159841
 30
0.0
 40
10.0
 50
90.0
 51
180.0
  0
LINE
  5
BC45
  8
0
 62
     7
 10
5868.9530652957001
 20
1204.260291104066
 30
0.0
 11
5868.9530652957001
 21
929.43048605436979
 31
0.0
  0
ARC
  5
BC46
  8
0
 62
     7
 10
5888.9530652957001
 20
1204.260291104066
 30
0.0
 40
20.0
 50
90.0
 51
180.0
  0
LINE
  5
BC47
  8
0
 62
     7
 10
5888.1855687851748
 20
1211.380004115977
 30
0.0
 11
5888.185568785203
 21
929.43048605436979
 31
0.0
  0
LINE
  5
BC48
  8
0
 62
     7
 10
5888.9530652957001
 20
1224.260291104066
 30
0.0
 11
6095.0873125108728
 21
1224.260291104066
 31
0.0
  0
LINE
  5
BC49
  8
0
 62
     7
 10
5887.0883368488539
 20
1211.3800041159841
 30
0.0
 11
6096.9520409577199
 21
1211.3800041159909
 31
0.0
  0
LINE
  5
BC4A
  8
0
 62
     7
 10
6127.0883368488539
 20
1451.2775685129229
 30
0.0
 11
6127.0883368488539
 21
651.27756851292986
 31
0.0
  0
LINE
  5
BC4B
  8
0
 62
     7
 10
5868.9530652957001
 20
929.43048605436263
 30
0.0
 11
6115.0873125108437
 21
929.43048605436263
 31
0.0
  0
LINE
  5
BC4C
  8
0
 62
     7
 10
6106.9520409577199
 20
1201.3800041159841
 30
0.0
 11
6106.9520409577199
 21
929.43048605436979
 31
0.0
  0
ARC
  5
BC4D
  8
0
 62
     7
 10
6096.9520409577199
 20
1166.007960909322
 30
0.0
 40
10.0
 50
0.0
 51
90.0
  0
ARC
  5
BC4E
  8
0
 62
     7
 10
6096.9520409577199
 20
1201.3800041159841
 30
0.0
 40
10.0
 50
0.0
 51
90.0
  0
LINE
  5
BC4F
  8
0
 62
     7
 10
6115.0873125108737
 20
1204.260291104066
 30
0.0
 11
6115.0873125108737
 21
929.43048605436979
 31
0.0
  0
ARC
  5
BC50
  8
0
 62
     7
 10
6095.0873125108728
 20
1204.260291104066
 30
0.0
 40
20.0
 50
0.0
 51
90.0
  0
LINE
  5
BC51
  8
0
 62
     7
 10
6095.854809021399
 20
1211.380004115977
 30
0.0
 11
6095.8548090213699
 21
929.43048605436979
 31
0.0
  0
LINE
  5
BC52
  8
0
 62
     7
 10
5887.0883368488539
 20
1176.0079609093291
 30
0.0
 11
6096.9520409577199
 21
1176.007960909322
 31
0.0
  0
LINE
  5
BC53
  8
0
 62
     7
 10
5877.088336848883
 20
1157.673472277753
 30
0.0
 11
6106.9520409577199
 21
1157.673472277746
 31
0.0
  0
CIRCLE
  5
BC54
  8
0
 62
     7
 10
5898.3789471595037
 20
1138.443679261901
 30
0.0
 40
10.19337837433136
  0
CIRCLE
  5
BC55
  8
0
 62
     7
 10
6085.6614306470692
 20
1138.443679261901
 30
0.0
 40
10.19337837433136
  0
CIRCLE
  5
BC56
  8
0
 62
     7
 10
5858.0207010722634
 20
951.07993238387189
 30
0.0
 40
10.932364223423059
  0
LINE
  5
BC57
  8
0
 62
     7
 10
5906.5240978226902
 20
969.27013375756997
 30
0.0
 11
6078.618433180407
 21
969.27013375756997
 31
0.0
  0
LINE
  5
BC58
  8
0
 62
     7
 10
5906.5240978226902
 20
959.27013375756997
 30
0.0
 11
6078.618433180407
 21
959.27013375756997
 31
0.0
  0
ARC
  5
BC59
  8
0
 62
     7
 10
5906.5240978226902
 20
964.27013375756985
 30
0.0
 40
5.0
 50
90.0
 51
270.0
  0
ARC
  5
BC5A
  8
0
 62
     7
 10
6078.618433180407
 20
964.27013375756985
 30
0.0
 40
5.0
 50
270.0
 51
90.0
  0
CIRCLE
  5
BC5B
  8
0
 62
     7
 10
5924.5425011401203
 20
964.27013375756985
 30
0.0
 40
10.0
  0
CIRCLE
  5
BC5C
  8
0
 62
     7
 10
6060.600029862977
 20
964.27013375756985
 30
0.0
 40
10.0
  0
CIRCLE
  5
BC5D
  8
0
 62
     7
 10
5858.0207010722634
 20
1361.7435347504641
 30
0.0
 40
10.932364223423059
  0
LINE
  5
BC5E
  8
0
 62
     7
 10
5847.0883368488539
 20
1401.27756851293
 30
0.0
 11
6127.0883368488539
 21
1401.27756851293
 31
0.0
  0
CIRCLE
  5
BC5F
  8
0
 62
     7
 10
6065.2882303847546
 20
1411.2775685129229
 30
0.0
 40
10.0
  0
LINE
  5
BC60
  8
0
 62
     7
 10
6131.0883368488248
 20
1444.4666136603471
 30
0.0
 11
6131.0883368488539
 21
1438.670009693057
 31
0.0
  0
LINE
  5
BC61
  8
0
 62
     7
 10
6128.0883368488539
 20
1435.6700096930499
 30
0.0
 11
6127.0883368488539
 21
1435.6700096930499
 31
0.0
  0
ARC
  5
BC62
  8
0
 62
     7
 10
6128.0883368488539
 20
1438.6700096930499
 30
0.0
 40
3.0
 50
270.0
 51
0.0
  0
LINE
  5
BC63
  8
0
 62
     7
 10
6128.0883368488539
 20
1447.46661366034
 30
0.0
 11
6127.0883368488539
 21
1447.46661366034
 31
0.0
  0
ARC
  5
BC64
  8
0
 62
     7
 10
6128.0883368488539
 20
1444.46661366034
 30
0.0
 40
3.0
 50
0.0
 51
90.0
  0
LINE
  5
BC65
  8
0
 62
     7
 10
6037.2519886613554
 20
541.2775685129227
 30
0.0
 11
6048.3161071093309
 21
541.2775685129227
 31
0.0
  0
LINE
  5
BC66
  8
0
 62
     7
 10
5900.4217625175042
 20
1339.2203263797701
 30
0.0
 11
5900.4217625175042
 21
1276.794137236865
 31
0.0
  0
LINE
  5
BC67
  8
0
 62
     7
 10
5902.4217625175042
 20
1339.2203263797701
 30
0.0
 11
5902.4217625175042
 21
1276.794137236865
 31
0.0
  0
ARC
  5
BC68
  8
0
 62
     7
 10
5910.4217625175042
 20
1339.2203263797701
 30
0.0
 40
10.0
 50
90.0
 51
180.0
  0
ARC
  5
BC69
  8
0
 62
     7
 10
5910.4217625175042
 20
1339.2203263797701
 30
0.0
 40
8.0
 50
90.0
 51
180.0
  0
LINE
  5
BC6A
  8
0
 62
     7
 10
6049.9797595429372
 20
1339.2203263797701
 30
0.0
 11
6049.9797595429372
 21
1276.794137236865
 31
0.0
  0
LINE
  5
BC6B
  8
0
 62
     7
 10
6047.9797595429372
 20
1339.2203263797701
 30
0.0
 11
6047.9797595429372
 21
1276.794137236865
 31
0.0
  0
ARC
  5
BC6C
  8
0
 62
     7
 10
6039.9797595429372
 20
1339.2203263797701
 30
0.0
 40
10.0
 50
0.0
 51
90.0
  0
ARC
  5
BC6D
  8
0
 62
     7
 10
6039.9797595429372
 20
1339.2203263797701
 30
0.0
 40
8.0
 50
0.0
 51
90.0
  0
CIRCLE
  5
BC6E
  8
0
 62
     7
 10
5910.320064501163
 20
1307.5342680917449
 30
0.0
 40
5.8983019836450694
  0
ARC
  5
BC6F
  8
0
 62
     7
 10
5910.320064501163
 20
1301.054997602105
 30
0.0
 40
7.8983019836450694
 50
137.1748043381078
 51
42.825195661892202
  0
ARC
  5
BC70
  8
0
 62
     7
 10
5910.320064501163
 20
1301.054997602105
 30
0.0
 40
5.8983019836450694
 50
146.6845077229666
 51
33.315492277032881
  0
LINE
  5
BC71
  8
0
 62
     7
 10
5910.4217625175042
 20
1349.2203263797701
 30
0.0
 11
6039.9797595429372
 21
1349.2203263797701
 31
0.0
  0
LINE
  5
BC72
  8
0
 62
     7
 10
5910.4217625175042
 20
1347.2203263797701
 30
0.0
 11
6039.9797595429372
 21
1347.2203263797701
 31
0.0
  0
LINE
  5
BC73
  8
0
 62
     7
 10
5910.4217625175042
 20
1266.794137236865
 30
0.0
 11
6039.9797595429372
 21
1266.794137236865
 31
0.0
  0
LINE
  5
BC74
  8
0
 62
     7
 10
5910.4217625175042
 20
1268.794137236865
 30
0.0
 11
6039.9797595429372
 21
1268.794137236865
 31
0.0
  0
ARC
  5
BC75
  8
0
 62
     7
 10
6039.9797595429372
 20
1276.794137236865
 30
0.0
 40
10.0
 50
270.0
 51
0.0
  0
ARC
  5
BC76
  8
0
 62
     7
 10
6039.9797595429372
 20
1276.794137236865
 30
0.0
 40
8.0
 50
270.0
 51
0.0
  0
ARC
  5
BC77
  8
0
 62
     7
 10
5910.4217625175042
 20
1276.794137236865
 30
0.0
 40
10.0
 50
180.0
 51
270.0
  0
ARC
  5
BC78
  8
0
 62
     7
 10
5910.4217625175042
 20
1276.794137236865
 30
0.0
 40
8.0
 50
180.0
 51
270.0
  0
CIRCLE
  5
BC79
  8
0
 62
     7
 10
6040.0814575592776
 20
1307.5342680917449
 30
0.0
 40
5.8983019836450694
  0
ARC
  5
BC7A
  8
0
 62
     7
 10
6040.0814575592776
 20
1301.054997602105
 30
0.0
 40
7.8983019836450694
 50
137.1748043381078
 51
42.825195661892202
  0
ARC
  5
BC7B
  8
0
 62
     7
 10
6040.0814575592776
 20
1301.054997602105
 30
0.0
 40
5.8983019836450694
 50
146.6845077229666
 51
33.315492277032881
  0
LINE
  5
BC7C
  8
0
 62
     7
 10
5866.1564715156237
 20
651.27756851292986
 30
0.0
 11
5866.1564715156237
 21
631.27756851292997
 31
0.0
  0
LINE
  5
BC7D
  8
0
 62
     7
 10
5835.1366690229006
 20
636.27756851292997
 30
0.0
 11
6115.2980150848407
 21
636.2775685129227
 31
0.0
  0
LINE
  5
BC7E
  8
0
 62
     7
 10
5830.870740106413
 20
626.27756851292986
 30
0.0
 11
6079.1126781749153
 21
626.27756851292986
 31
0.0
  0
LINE
  5
BC7F
  8
0
 62
     7
 10
5905.7788886866147
 20
623.95593601666667
 30
0.0
 11
5906.7788886866147
 21
623.95593601666667
 31
0.0
  0
LINE
  5
BC80
  8
0
 62
     7
 10
5907.6628374774273
 20
621.9157281067445
 30
0.0
 11
5909.8150193877191
 21
621.9157281067445
 31
0.0
  0
LINE
  5
BC81
  8
0
 62
     7
 10
5906.7788886866147
 20
622.58605608070411
 30
0.0
 11
5907.6628374774273
 21
622.58605608070411
 31
0.0
  0
LINE
  5
BC82
  8
0
 62
     7
 10
5856.2089891419118
 20
624.27756851292986
 30
0.0
 11
5862.2675995436111
 21
624.2775685129227
 31
0.0
  0
LINE
  5
BC83
  8
0
 62
     7
 10
5866.2867163579176
 20
624.2775685129227
 30
0.0
 11
5872.345326759646
 21
624.2775685129227
 31
0.0
  0
LINE
  5
BC84
  8
0
 62
     7
 10
5856.2089891419118
 20
631.2775685129227
 30
0.0
 11
5856.2089891419118
 21
624.27756851292986
 31
0.0
  0
LINE
  5
BC85
  8
0
 62
     7
 10
5862.2675995436111
 20
631.2775685129227
 30
0.0
 11
5862.2675995436111
 21
624.27756851292986
 31
0.0
  0
LINE
  5
BC86
  8
0
 62
     7
 10
5866.2867163579176
 20
631.2775685129227
 30
0.0
 11
5866.2867163579176
 21
624.27756851292986
 31
0.0
  0
LINE
  5
BC87
  8
0
 62
     7
 10
5872.345326759646
 20
631.2775685129227
 30
0.0
 11
5872.345326759646
 21
624.27756851292986
 31
0.0
  0
LINE
  5
BC88
  8
0
 62
     7
 10
5907.6628374774273
 20
621.9157281067445
 30
0.0
 11
5907.6628374774273
 21
622.58605608070411
 31
0.0
  0
LINE
  5
BC89
  8
0
 62
     7
 10
5906.7788886866147
 20
622.58605608070411
 30
0.0
 11
5906.7788886866147
 21
623.95593601666667
 31
0.0
  0
LINE
  5
BC8A
  8
0
 62
     7
 10
5905.7788886866147
 20
623.95593601666667
 30
0.0
 11
5905.7788886866147
 21
626.27756851292986
 31
0.0
  0
LINE
  5
BC8B
  8
0
 62
     7
 10
5911.6989681785299
 20
624.6649945739764
 30
0.0
 11
5910.6989681785308
 21
624.6649945739764
 31
0.0
  0
LINE
  5
BC8C
  8
0
 62
     7
 10
5910.6989681785308
 20
622.58605608070411
 30
0.0
 11
5909.8150193877191
 21
622.58605608070411
 31
0.0
  0
LINE
  5
BC8D
  8
0
 62
     7
 10
5909.8150193877191
 20
621.9157281067445
 30
0.0
 11
5909.8150193877191
 21
622.58605608070411
 31
0.0
  0
LINE
  5
BC8E
  8
0
 62
     7
 10
5910.6989681785308
 20
622.58605608070411
 30
0.0
 11
5910.6989681785308
 21
624.6649945739764
 31
0.0
  0
LINE
  5
BC8F
  8
0
 62
     7
 10
5911.6989681785299
 20
624.6649945739764
 30
0.0
 11
5911.6989681785299
 21
626.2775685129227
 31
0.0
  0
LINE
  5
BC90
  8
0
 62
     7
 10
6045.6791162479458
 20
623.95593601666667
 30
0.0
 11
6044.6791162479449
 21
623.95593601666667
 31
0.0
  0
LINE
  5
BC91
  8
0
 62
     7
 10
6043.7951674571341
 20
621.9157281067445
 30
0.0
 11
6041.6429855468414
 21
621.9157281067445
 31
0.0
  0
LINE
  5
BC92
  8
0
 62
     7
 10
6044.6791162479449
 20
622.58605608070411
 30
0.0
 11
6043.7951674571341
 21
622.58605608070411
 31
0.0
  0
LINE
  5
BC93
  8
0
 62
     7
 10
6094.5900517116497
 20
624.27756851292986
 30
0.0
 11
6088.5314413099513
 21
624.2775685129227
 31
0.0
  0
LINE
  5
BC94
  8
0
 62
     7
 10
6085.1712885766428
 20
624.2775685129227
 30
0.0
 11
6079.1126781749153
 21
624.2775685129227
 31
0.0
  0
LINE
  5
BC95
  8
0
 62
     7
 10
6094.5900517116497
 20
631.2775685129227
 30
0.0
 11
6094.5900517116497
 21
624.27756851292986
 31
0.0
  0
LINE
  5
BC96
  8
0
 62
     7
 10
6088.5314413099513
 20
631.2775685129227
 30
0.0
 11
6088.5314413099513
 21
624.27756851292986
 31
0.0
  0
LINE
  5
BC97
  8
0
 62
     7
 10
6085.1712885766428
 20
631.2775685129227
 30
0.0
 11
6085.1712885766428
 21
624.27756851292986
 31
0.0
  0
LINE
  5
BC98
  8
0
 62
     7
 10
6079.1126781749153
 20
631.2775685129227
 30
0.0
 11
6079.1126781749153
 21
624.27756851292986
 31
0.0
  0
LINE
  5
BC99
  8
0
 62
     7
 10
6043.7951674571341
 20
621.9157281067445
 30
0.0
 11
6043.7951674571341
 21
622.58605608070411
 31
0.0
  0
LINE
  5
BC9A
  8
0
 62
     7
 10
6044.6791162479449
 20
622.58605608070411
 30
0.0
 11
6044.6791162479449
 21
623.95593601666667
 31
0.0
  0
LINE
  5
BC9B
  8
0
 62
     7
 10
6045.6791162479458
 20
623.95593601666667
 30
0.0
 11
6045.6791162479458
 21
626.27756851292986
 31
0.0
  0
LINE
  5
BC9C
  8
0
 62
     7
 10
6039.7590367560297
 20
624.6649945739764
 30
0.0
 11
6040.7590367560288
 21
624.6649945739764
 31
0.0
  0
LINE
  5
BC9D
  8
0
 62
     7
 10
6040.7590367560288
 20
622.58605608070411
 30
0.0
 11
6041.6429855468414
 21
622.58605608070411
 31
0.0
  0
LINE
  5
BC9E
  8
0
 62
     7
 10
6041.6429855468414
 20
621.9157281067445
 30
0.0
 11
6041.6429855468414
 21
622.58605608070411
 31
0.0
  0
LINE
  5
BC9F
  8
0
 62
     7
 10
6040.7590367560288
 20
622.58605608070411
 30
0.0
 11
6040.7590367560288
 21
624.6649945739764
 31
0.0
  0
LINE
  5
BCA0
  8
0
 62
     7
 10
6039.7590367560297
 20
624.6649945739764
 30
0.0
 11
6039.7590367560297
 21
626.2775685129227
 31
0.0
  0
LINE
  5
BCA1
  8
0
 62
     7
 10
6094.5900517116497
 20
626.27756851292986
 30
0.0
 11
6120.6799924075267
 21
626.27756851293725
 31
0.0
  0
LINE
  5
BCA2
  8
0
 62
     7
 10
5880.2921562626971
 20
577.72759982913612
 30
0.0
 11
5880.2921562626971
 21
541.27756851292986
 31
0.0
  0
POLYLINE
  5
BCA3
  8
0
 62
     7
 66
     1
 10
0.0
 20
0.0
 30
0.0
  0
VERTEX
  5
BFCA
  8
0
 62
     7
 10
5830.870740106413
 20
600.15660204995845
 30
0.0
  0
VERTEX
  5
BFCB
  8
0
 62
     7
 10
5843.0434594975632
 20
593.44994120272065
 30
0.0
  0
VERTEX
  5
BFCC
  8
0
 62
     7
 10
5854.8942962437541
 20
588.88215058584217
 30
0.0
  0
VERTEX
  5
BFCD
  8
0
 62
     7
 10
5876.0565426131034
 20
580.8180480666623
 30
0.0
  0
VERTEX
  5
BFCE
  8
0
 62
     7
 10
5880.2921562626971
 20
577.72759982913612
 30
0.0
  0
SEQEND
  5
BFCF
  8
0
 62
     7
  0
LINE
  5
BCA4
  8
0
 62
     7
 10
6037.2519886613554
 20
546.78417595890551
 30
0.0
 11
6048.3161071093609
 21
546.78417595890551
 31
0.0
  0
LINE
  5
BCA5
  8
0
 62
     7
 10
6045.5406624951247
 20
547.41241337327574
 30
0.0
 11
6046.2342661920657
 21
547.41241337327574
 31
0.0
  0
LINE
  5
BCA6
  8
0
 62
     7
 10
6044.8246834786796
 20
548.20245815533315
 30
0.0
 11
6045.5406624951247
 21
548.20245815533315
 31
0.0
  0
LINE
  5
BCA7
  8
0
 62
     7
 10
6044.138975117643
 20
549.41241337327574
 30
0.0
 11
6044.8246834786796
 21
549.41241337327574
 31
0.0
  0
LINE
  5
BCA8
  8
0
 62
     7
 10
6044.138975117643
 20
549.41241337327574
 30
0.0
 11
6044.138975117643
 21
550.21881671279596
 31
0.0
  0
LINE
  5
BCA9
  8
0
 62
     7
 10
6044.8246834786796
 20
548.20245815533315
 30
0.0
 11
6044.8246834786796
 21
549.41241337327574
 31
0.0
  0
LINE
  5
BCAA
  8
0
 62
     7
 10
6045.5406624951247
 20
547.41241337327574
 30
0.0
 11
6045.5406624951247
 21
548.20245815533315
 31
0.0
  0
LINE
  5
BCAB
  8
0
 62
     7
 10
6046.2342661920366
 20
546.78417595889823
 30
0.0
 11
6046.2342661920657
 21
547.41241337327574
 31
0.0
  0
LINE
  5
BCAC
  8
0
 62
     7
 10
6041.4087492453073
 20
550.21881671279596
 30
0.0
 11
6044.138975117643
 21
550.21881671279596
 31
0.0
  0
LINE
  5
BCAD
  8
0
 62
     7
 10
6040.0690699010111
 20
548.13807443815222
 30
0.0
 11
6039.3754662040701
 21
548.13807443815222
 31
0.0
  0
LINE
  5
BCAE
  8
0
 62
     7
 10
6040.7850489174562
 20
548.80153417333247
 30
0.0
 11
6040.0690699010111
 21
548.80153417333247
 31
0.0
  0
LINE
  5
BCAF
  8
0
 62
     7
 10
6041.4087492453073
 20
549.41241337327574
 30
0.0
 11
6040.7850489174562
 21
549.41241337327574
 31
0.0
  0
LINE
  5
BCB0
  8
0
 62
     7
 10
6041.4087492453073
 20
549.41241337327574
 30
0.0
 11
6041.4087492453073
 21
550.21881671279596
 31
0.0
  0
LINE
  5
BCB1
  8
0
 62
     7
 10
6040.7850489174562
 20
548.80153417333247
 30
0.0
 11
6040.7850489174562
 21
549.41241337327574
 31
0.0
  0
LINE
  5
BCB2
  8
0
 62
     7
 10
6040.0690699010111
 20
548.13807443815222
 30
0.0
 11
6040.0690699010111
 21
548.80153417333247
 31
0.0
  0
LINE
  5
BCB3
  8
0
 62
     7
 10
6039.375466204041
 20
546.78417595889823
 30
0.0
 11
6039.3754662040701
 21
548.13807443815222
 31
0.0
  0
LINE
  5
BCB4
  8
0
 62
     7
 10
6048.3161071093309
 20
546.78417595890551
 30
0.0
 11
6048.3161071093891
 21
541.27756851291542
 31
0.0
  0
LINE
  5
BCB5
  8
0
 62
     7
 10
6037.2519886613263
 20
546.78417595890551
 30
0.0
 11
6037.2519886613854
 21
541.27756851291542
 31
0.0
  0
LINE
  5
BCB6
  8
0
 62
     7
 10
5830.870740106413
 20
541.27756851291542
 30
0.0
 11
6120.6799924075267
 21
541.27756851291542
 31
0.0
  0
LINE
  5
BCB7
  8
0
 62
     7
 10
5903.3106916663201
 20
541.2775685129227
 30
0.0
 11
5914.3748101142965
 21
541.2775685129227
 31
0.0
  0
LINE
  5
BCB8
  8
0
 62
     7
 10
5903.3106916663201
 20
546.78417595890551
 30
0.0
 11
5914.3748101143237
 21
546.78417595890551
 31
0.0
  0
LINE
  5
BCB9
  8
0
 62
     7
 10
5911.5993655000893
 20
547.41241337327574
 30
0.0
 11
5912.2929691970312
 21
547.41241337327574
 31
0.0
  0
LINE
  5
BCBA
  8
0
 62
     7
 10
5910.8833864836461
 20
548.20245815533315
 30
0.0
 11
5911.5993655000893
 21
548.20245815533315
 31
0.0
  0
LINE
  5
BCBB
  8
0
 62
     7
 10
5910.1976781226067
 20
549.41241337327574
 30
0.0
 11
5910.8833864836461
 21
549.41241337327574
 31
0.0
  0
LINE
  5
BCBC
  8
0
 62
     7
 10
5910.1976781226067
 20
549.41241337327574
 30
0.0
 11
5910.1976781226067
 21
550.21881671279596
 31
0.0
  0
LINE
  5
BCBD
  8
0
 62
     7
 10
5910.8833864836461
 20
548.20245815533315
 30
0.0
 11
5910.8833864836461
 21
549.41241337327574
 31
0.0
  0
LINE
  5
BCBE
  8
0
 62
     7
 10
5911.5993655000893
 20
547.41241337327574
 30
0.0
 11
5911.5993655000893
 21
548.20245815533315
 31
0.0
  0
LINE
  5
BCBF
  8
0
 62
     7
 10
5912.2929691970021
 20
546.78417595889823
 30
0.0
 11
5912.2929691970312
 21
547.41241337327574
 31
0.0
  0
LINE
  5
BCC0
  8
0
 62
     7
 10
5907.4674522502719
 20
550.21881671279596
 30
0.0
 11
5910.1976781226067
 21
550.21881671279596
 31
0.0
  0
LINE
  5
BCC1
  8
0
 62
     7
 10
5906.1277729059766
 20
548.13807443815222
 30
0.0
 11
5905.4341692090338
 21
548.13807443815222
 31
0.0
  0
LINE
  5
BCC2
  8
0
 62
     7
 10
5906.8437519224208
 20
548.80153417333247
 30
0.0
 11
5906.1277729059766
 21
548.80153417333247
 31
0.0
  0
LINE
  5
BCC3
  8
0
 62
     7
 10
5907.4674522502719
 20
549.41241337327574
 30
0.0
 11
5906.8437519224208
 21
549.41241337327574
 31
0.0
  0
LINE
  5
BCC4
  8
0
 62
     7
 10
5907.4674522502719
 20
549.41241337327574
 30
0.0
 11
5907.4674522502719
 21
550.21881671279596
 31
0.0
  0
LINE
  5
BCC5
  8
0
 62
     7
 10
5906.8437519224208
 20
548.80153417333247
 30
0.0
 11
5906.8437519224208
 21
549.41241337327574
 31
0.0
  0
LINE
  5
BCC6
  8
0
 62
     7
 10
5906.1277729059766
 20
548.13807443815222
 30
0.0
 11
5906.1277729059766
 21
548.80153417333247
 31
0.0
  0
LINE
  5
BCC7
  8
0
 62
     7
 10
5905.4341692090047
 20
546.78417595889823
 30
0.0
 11
5905.4341692090338
 21
548.13807443815222
 31
0.0
  0
LINE
  5
BCC8
  8
0
 62
     7
 10
5914.3748101142965
 20
546.78417595890551
 30
0.0
 11
5914.3748101143528
 21
541.27756851291542
 31
0.0
  0
LINE
  5
BCC9
  8
0
 62
     7
 10
5903.3106916662909
 20
546.78417595890551
 30
0.0
 11
5903.3106916663492
 21
541.27756851291542
 31
0.0
  0
LINE
  5
BCCA
  8
0
 62
     7
 10
5830.870740106413
 20
546.78417595889823
 30
0.0
 11
6120.6799924075267
 21
546.78417595890551
 31
0.0
  0
LINE
  5
BCCB
  8
0
 62
     7
 10
6120.6799924075267
 20
631.2775685129227
 30
0.0
 11
6120.6799924075267
 21
541.27756851291542
 31
0.0
  0
LINE
  5
BCCC
  8
0
 62
     7
 10
6115.2980150848407
 20
651.2775685129227
 30
0.0
 11
6115.2980150848407
 21
631.2775685129227
 31
0.0
  0
LINE
  5
BCCD
  8
0
 62
     7
 10
6085.8658923466246
 20
651.2775685129227
 30
0.0
 11
6085.8658923466246
 21
631.2775685129227
 31
0.0
  0
LINE
  5
BCCE
  8
0
 62
     7
 10
6071.2585762512417
 20
577.72759982913612
 30
0.0
 11
6071.2585762512417
 21
541.27756851292986
 31
0.0
  0
POLYLINE
  5
BCCF
  8
0
 62
     7
 66
     1
 10
0.0
 20
0.0
 30
0.0
  0
VERTEX
  5
BFD0
  8
0
 62
     7
 10
6120.6799924075267
 20
600.15660204995845
 30
0.0
  0
VERTEX
  5
BFD1
  8
0
 62
     7
 10
6108.5072730163774
 20
593.44994120272065
 30
0.0
  0
VERTEX
  5
BFD2
  8
0
 62
     7
 10
6096.6564362701874
 20
588.88215058584217
 30
0.0
  0
VERTEX
  5
BFD3
  8
0
 62
     7
 10
6075.4941899008372
 20
580.8180480666623
 30
0.0
  0
VERTEX
  5
BFD4
  8
0
 62
     7
 10
6071.2585762512417
 20
577.72759982913612
 30
0.0
  0
SEQEND
  5
BFD5
  8
0
 62
     7
  0
LINE
  5
BCD0
  8
0
 62
     7
 10
6085.8658923466246
 20
648.27756851292997
 30
0.0
 11
6115.2980150848407
 21
648.27756851292997
 31
0.0
  0
CIRCLE
  5
BCD1
  8
0
 62
     7
 10
5875.706806305152
 20
659.78656110473003
 30
0.0
 40
5.8100386077421708
  0
LINE
  5
BCD2
  8
0
 62
     7
 10
5823.088336848883
 20
663.17813940488759
 30
0.0
 11
5823.0883368488539
 21
657.38153543759745
 31
0.0
  0
LINE
  5
BCD3
  8
0
 62
     7
 10
5826.0883368488539
 20
654.38153543759006
 30
0.0
 11
5827.0883368488539
 21
654.38153543759006
 31
0.0
  0
ARC
  5
BCD4
  8
0
 62
     7
 10
5826.0883368488539
 20
657.38153543759006
 30
0.0
 40
3.0
 50
180.0
 51
270.0
  0
LINE
  5
BCD5
  8
0
 62
     7
 10
5826.0883368488539
 20
666.1781394048802
 30
0.0
 11
5827.0883368488539
 21
666.1781394048802
 31
0.0
  0
ARC
  5
BCD6
  8
0
 62
     7
 10
5826.0883368488539
 20
663.17813940488031
 30
0.0
 40
3.0
 50
90.0
 51
180.0
  0
LINE
  5
BCD7
  8
0
 62
     7
 10
6131.0883368488248
 20
663.17813940488759
 30
0.0
 11
6131.0883368488539
 21
657.38153543759745
 31
0.0
  0
LINE
  5
BCD8
  8
0
 62
     7
 10
6128.0883368488539
 20
654.38153543759006
 30
0.0
 11
6127.0883368488539
 21
654.38153543759006
 31
0.0
  0
ARC
  5
BCD9
  8
0
 62
     7
 10
6128.0883368488539
 20
657.38153543759006
 30
0.0
 40
3.0
 50
270.0
 51
0.0
  0
LINE
  5
BCDA
  8
0
 62
     7
 10
6128.0883368488539
 20
666.1781394048802
 30
0.0
 11
6127.0883368488539
 21
666.1781394048802
 31
0.0
  0
ARC
  5
BCDB
  8
0
 62
     7
 10
6128.0883368488539
 20
663.17813940488031
 30
0.0
 40
3.0
 50
0.0
 51
90.0
  0
LINE
  5
BCDC
  8
用紙枠
 10
3943.9782782280959
 20
0.0
 30
0.0
 11
6913.9782782280963
 21
0.0
 31
0.0
  0
LINE
  5
BCDD
  8
用紙枠
 10
6913.9782782280963
 20
0.0
 30
0.0
 11
6913.9782782280963
 21
2100.0
 31
0.0
  0
LINE
  5
BCDE
  8
用紙枠
 10
6913.9782782280963
 20
2100.0
 30
0.0
 11
3943.9782782280959
 21
2100.0
 31
0.0
  0
LINE
  5
BCDF
  8
用紙枠
 10
3943.9782782280959
 20
2100.0
 30
0.0
 11
3943.9782782280959
 21
0.0
 31
0.0
  0
LINE
  5
BCE0
  8
図面枠
 10
6813.9782782280963
 20
100.0
 30
0.0
 11
6813.9782782280963
 21
2000.0
 31
0.0
  0
LINE
  5
BCE1
  8
図面枠
 10
6813.9782782280963
 20
2000.0
 30
0.0
 11
4143.9782782280963
 21
2000.0
 31
0.0
  0
LINE
  5
BCE2
  8
図面枠
 10
4143.9782782280963
 20
2000.0
 30
0.0
 11
4143.9782782280963
 21
100.0
 31
0.0
  0
LINE
  5
BCE3
  8
図面枠
 10
4143.9782782280963
 20
100.0
 30
0.0
 11
6813.9782782280963
 21
100.0
 31
0.0
  0
LINE
  5
BCE4
  8
0
 10
6813.9782782280963
 20
1893.388757552422
 30
0.0
 11
4143.9782782280963
 21
1893.388757552422
 31
0.0
  0
TEXT
  5
BCE5
  8
0
 10
4193.9782782280963
 20
1918.388757552422
 30
0.0
 40
50.0
  1
ENG-B5022C4-B1/ENG-B7430A5-N1
 11
4193.9782782280963
 21
1943.388757552422
 31
0.0
 73
     2
  0
LINE
  5
BD49
  8
0
 10
6127.0883368488539
 20
1438.4467442343951
 30
0.0
 11
6127.0883368488539
 21
1551.4495622810341
 31
0.0
  0
LINE
  5
BD4A
  8
0
 10
6127.088336848853
 20
1551.269562281034
 30
0.0
 11
5827.0883368488539
 21
1551.269562281034
 31
0.0
  0
LINE
  5
BD4B
  8
0
 10
6092.0883368488539
 20
1557.1028956143671
 30
0.0
 11
6127.0883368488539
 21
1551.269562281034
 31
0.0
  0
LINE
  5
BD4C
  8
0
 10
6092.0883368488539
 20
1545.436228947701
 30
0.0
 11
6127.0883368488539
 21
1551.269562281034
 31
0.0
  0
LINE
  5
BD4D
  8
0
 10
6127.0883368488539
 20
1551.269562281034
 30
0.0
 11
5912.0883368488539
 21
1551.269562281034
 31
0.0
  0
TEXT
  5
BD4E
  8
0
 10
5938.906518667035
 20
1561.269562281034
 30
0.0
 40
35.0
  1
300
 72
     1
 11
5977.0883368488539
 21
1561.269562281034
 31
0.0
  0
LINE
  5
BD4F
  8
0
 10
5827.0883368488539
 20
1425.851211923763
 30
0.0
 11
5827.0883368488539
 21
1551.4495622810341
 31
0.0
  0
LINE
  5
BD50
  8
0
 10
5862.0883368488539
 20
1557.1028956143671
 30
0.0
 11
5827.0883368488539
 21
1551.269562281034
 31
0.0
  0
LINE
  5
BD51
  8
0
 10
5862.0883368488539
 20
1545.436228947701
 30
0.0
 11
5827.0883368488539
 21
1551.269562281034
 31
0.0
  0
LINE
  5
BD52
  8
0
 10
5827.0883368488539
 20
1551.269562281034
 30
0.0
 11
5862.0883368488539
 21
1551.269562281034
 31
0.0
  0
LINE
  5
BD54
  8
0
 10
5627.0883368488549
 20
1551.269562281035
 30
0.0
 11
4847.0883368488539
 21
1551.269562281034
 31
0.0
  0
LINE
  5
BD55
  8
0
 10
5627.0883368488539
 20
1551.269562281034
 30
0.0
 11
4932.088336848853
 21
1551.269562281034
 31
0.0
  0
TEXT
  5
BD56
  8
0
 10
5198.9065186670359
 20
1561.269562281034
 30
0.0
 40
35.0
  1
780
 72
     1
 11
5237.0883368488539
 21
1561.269562281034
 31
0.0
  0
LINE
  5
BD57
  8
0
 10
4847.0883368488549
 20
1421.2775685129229
 30
0.0
 11
4847.0883368488539
 21
1551.4495622810341
 31
0.0
  0
LINE
  5
BD58
  8
0
 10
4882.0883368488539
 20
1557.1028956143671
 30
0.0
 11
4847.0883368488539
 21
1551.269562281034
 31
0.0
  0
LINE
  5
BD59
  8
0
 10
4882.0883368488539
 20
1545.436228947701
 30
0.0
 11
4847.0883368488539
 21
1551.269562281034
 31
0.0
  0
LINE
  5
BD5A
  8
0
 10
4847.0883368488539
 20
1551.269562281034
 30
0.0
 11
4882.0883368488539
 21
1551.269562281034
 31
0.0
  0
LINE
  5
BD5B
  8
0
 10
5627.0883368488539
 20
1421.2775685129229
 30
0.0
 11
5627.0883368488539
 21
1551.4495622810341
 31
0.0
  0
LINE
  5
BD5C
  8
0
 10
5592.0883368488539
 20
1557.1028956143671
 30
0.0
 11
5627.0883368488539
 21
1551.269562281034
 31
0.0
  0
LINE
  5
BD5D
  8
0
 10
5592.0883368488539
 20
1545.436228947701
 30
0.0
 11
5627.0883368488539
 21
1551.269562281034
 31
0.0
  0
LINE
  5
BD5E
  8
0
 10
5627.0883368488539
 20
1551.269562281034
 30
0.0
 11
5592.0883368488539
 21
1551.269562281034
 31
0.0
  0
LINE
  5
BD60
  8
0
 10
5677.0883368488539
 20
1551.269562281035
 30
0.0
 11
4897.0883368488539
 21
1551.269562281034
 31
0.0
  0
LINE
  5
BD61
  8
0
 10
5677.0883368488539
 20
1551.269562281034
 30
0.0
 11
5627.0883368488603
 21
1551.269562281035
 31
0.0
  0
LINE
  5
BD62
  8
0
 10
5677.0883368488539
 20
1155.695232315453
 30
0.0
 11
5677.0883368488539
 21
1551.4495622810341
 31
0.0
  0
LINE
  5
BD63
  8
0
 10
5642.088336848853
 20
1557.1028956143671
 30
0.0
 11
5677.0883368488539
 21
1551.269562281034
 31
0.0
  0
LINE
  5
BD64
  8
0
 10
5642.088336848853
 20
1545.436228947701
 30
0.0
 11
5677.0883368488539
 21
1551.269562281034
 31
0.0
  0
LINE
  5
BD65
  8
0
 10
5677.0883368488539
 20
1551.269562281034
 30
0.0
 11
5642.088336848853
 21
1551.269562281034
 31
0.0
  0
LINE
  5
BD66
  8
0
 10
5662.0883368488594
 20
1557.1028956143671
 30
0.0
 11
5627.0883368488603
 21
1551.269562281034
 31
0.0
  0
LINE
  5
BD67
  8
0
 10
5662.0883368488594
 20
1545.436228947701
 30
0.0
 11
5627.0883368488603
 21
1551.269562281034
 31
0.0
  0
TEXT
  5
BD68
  8
0
 10
5626.6337913943107
 20
1561.269562281034
 30
0.0
 40
35.0
  1
50
 72
     1
 11
5652.0883368488567
 21
1561.269562281034
 31
0.0
  0
LINE
  5
BD69
  8
0
 10
5540.7209880117744
 20
1451.2775685129229
 30
0.0
 11
5727.2683368488551
 21
1451.2775685129229
 31
0.0
  0
LINE
  5
BD6A
  8
0
 10
5560.9828174689874
 20
541.2775685129227
 30
0.0
 11
5727.2683368488551
 21
541.2775685129227
 31
0.0
  0
LINE
  5
BD6B
  8
0
 10
5727.0883368488539
 20
1416.2775685129229
 30
0.0
 11
5727.0883368488539
 21
576.27756851292258
 31
0.0
  0
LINE
  5
BD6C
  8
0
 10
5721.2550035155218
 20
1416.2775685129229
 30
0.0
 11
5727.0883368488539
 21
1451.2775685129229
 31
0.0
  0
LINE
  5
BD6D
  8
0
 10
5732.9216701821888
 20
1416.2775685129229
 30
0.0
 11
5727.0883368488539
 21
1451.2775685129229
 31
0.0
  0
LINE
  5
BD6E
  8
0
 10
5727.0883368488539
 20
1451.2775685129229
 30
0.0
 11
5727.0883368488539
 21
1416.2775685129229
 31
0.0
  0
LINE
  5
BD6F
  8
0
 10
5732.9216701821888
 20
576.27756851292258
 30
0.0
 11
5727.0883368488539
 21
541.2775685129227
 31
0.0
  0
LINE
  5
BD70
  8
0
 10
5721.2550035155218
 20
576.27756851292258
 30
0.0
 11
5727.0883368488539
 21
541.2775685129227
 31
0.0
  0
LINE
  5
BD71
  8
0
 10
5727.0883368488539
 20
541.2775685129227
 30
0.0
 11
5727.0883368488539
 21
576.27756851292258
 31
0.0
  0
TEXT
  5
BD72
  8
0
 10
5717.0883368488558
 20
958.09575033110445
 30
0.0
 40
35.0
  1
910
 50
90.0
 72
     1
 11
5717.0883368488558
 21
996.27756851292258
 31
0.0
  0
CIRCLE
  5
BEF7
  8
0
 62
     7
 10
5895.8487468038484
 20
1411.2775685129229
 30
0.0
 40
10.0
  0
CIRCLE
  5
BEF9
  8
0
 62
     7
 10
5895.8487468038484
 20
1411.2775685129229
 30
0.0
 40
7.0
  0
CIRCLE
  5
BEFA
  8
0
 62
     7
 10
6065.2882303847546
 20
1411.2775685129229
 30
0.0
 40
7.0
  0
CIRCLE
  5
BEFB
  8
0
 62
     7
 10
5858.0207010722634
 20
1361.7435347504641
 30
0.0
 40
7.9323642234230638
  0
CIRCLE
  5
BEFC
  8
0
 62
     7
 10
5898.3789471595037
 20
1138.443679261901
 30
0.0
 40
7.1933783743313633
  0
CIRCLE
  5
BEFD
  8
0
 62
     7
 10
6085.6614306470692
 20
1138.443679261901
 30
0.0
 40
7.1933783743313633
  0
CIRCLE
  5
BEFE
  8
0
 62
     7
 10
5858.0207010722634
 20
951.07993238387189
 30
0.0
 40
7.9323642234230638
  0
CIRCLE
  5
BEFF
  8
0
 62
     7
 10
5875.706806305152
 20
659.78656110473003
 30
0.0
 40
2.8100386077421708
  0
CIRCLE
  5
BF00
  8
0
 62
     7
 10
5924.5425011401203
 20
964.27013375756985
 30
0.0
 40
7.0
  0
CIRCLE
  5
BF01
  8
0
 62
     7
 10
6060.600029862977
 20
964.27013375756985
 30
0.0
 40
7.0
  0
CIRCLE
  5
BF02
  8
0
 62
     7
 10
5576.5529715032571
 20
659.78656110473003
 30
0.0
 40
2.8100386077421708
  0
CIRCLE
  5
BF03
  8
0
 62
     7
 10
5237.0883368488539
 20
659.78656110473003
 30
0.0
 40
2.8100386077421708
  0
CIRCLE
  5
BF04
  8
0
 62
     7
 10
4897.6237021944507
 20
659.78656110473003
 30
0.0
 40
2.8100386077421708
  0
VIEWPORT
  5
6AD3
 67
     1
  8
0
  6
CONTINUOUS
 10
389.9901464911772
 20
101.8328354358673
 30
0.0
 40
803.55688630510838
 41
321.00314257097023
 68
     1
 69
     1
1001
ACAD
1000
MVIEW
1002
{
1070
    16
1010
0.0
1020
0.0
1030
0.0
1010
0.0
1020
0.0
1030
1.0
1040
0.0
1040
321.00314257097023
1040
389.9901464911772
1040
101.8328354358673
1040
50.0
1040
0.0
1040
0.0
1070
     0
1070
   100
1070
     1
1070
     1
1070
     0
1070
     0
1070
     0
1070
     0
1040
0.0
1040
0.0
1040
0.0
1040
10.0
1040
10.0
1040
10.0
1040
10.0
1070
     0
1002
{
1002
}
1002
}
  0
VIEWPORT
  5
6AD7
 67
     1
  8
0
  6
CONTINUOUS
 10
145.3303314447403
 20
101.8328338861465
 30
0.0
 40
232.52853031158449
 41
162.93253421783439
 68
     2
 69
     2
1001
ACAD
1000
MVIEW
1002
{
1070
    16
1010
0.0
1020
0.0
1030
0.0
1010
0.0
1020
0.0
1030
1.0
1040
0.0
1040
2129.164266250119
1040
1485.000020746475
1040
1050.000014669225
1040
50.0
1040
0.0
1040
0.0
1070
     0
1070
   100
1070
     1
1070
     1
1070
     0
1070
     0
1070
     0
1070
     0
1040
0.0
1040
0.0
1040
0.0
1040
10.0
1040
10.0
1040
10.0
1040
10.0
1070
     0
1002
{
1002
}
1002
}
  0
ENDSEC
  0
EOF
