  0
SECTION
  2
HEADER
  9
$ACADVER
  1
AC1009
  9
$INSBASE
 10
0.0
 20
0.0
 30
0.0
  9
$EXTMIN
 10
-0.2718396993659553
 20
-0.1922098884388106
 30
-0.0000000000000058
  9
$EXTMAX
 10
5940.2719503463923
 20
4200.1922881237106
 30
0.0000000000000104
  9
$LIMMIN
 10
109.65118815104159
 20
82.197222222222209
  9
$LIMMAX
 10
147.89037000868041
 20
96.502808973524296
  9
$ORTHOMODE
 70
     0
  9
$REGENMODE
 70
     1
  9
$FILLMODE
 70
     1
  9
$QTEXTMODE
 70
     0
  9
$MIRRTEXT
 70
     1
  9
$DRAGMODE
 70
     2
  9
$LTSCALE
 40
1.0
  9
$OSMODE
 70
   175
  9
$ATTMODE
 70
     1
  9
$TEXTSIZE
 40
0.0
  9
$TRACEWID
 40
0.05
  9
$TEXTSTYLE
  7
STANDARD
  9
$CLAYER
  8
0
  9
$CELTYPE
  6
BYLAYER
  9
$CECOLOR
 62
   256
  9
$DIMSCALE
 40
2.0
  9
$DIMASZ
 40
35.0
  9
$DIMEXO
 40
0.0625
  9
$DIMDLI
 40
10.0
  9
$DIMRND
 40
0.0
  9
$DIMDLE
 40
0.0
  9
$DIMEXE
 40
0.18
  9
$DIMTP
 40
0.0
  9
$DIMTM
 40
0.0
  9
$DIMTXT
 40
35.0
  9
$DIMCEN
 40
0.09
  9
$DIMTSZ
 40
0.0
  9
$DIMTOL
 70
     0
  9
$DIMLIM
 70
     0
  9
$DIMTIH
 70
     0
  9
$DIMTOH
 70
     0
  9
$DIMSE1
 70
     0
  9
$DIMSE2
 70
     0
  9
$DIMTAD
 70
     3
  9
$DIMZIN
 70
     0
  9
$DIMBLK
  1
OPEN
  9
$DIMASO
 70
     1
  9
$DIMSHO
 70
     1
  9
$DIMPOST
  1

  9
$DIMAPOST
  1

  9
$DIMALT
 70
     0
  9
$DIMALTD
 70
     2
  9
$DIMALTF
 40
25.399999999999999
  9
$DIMLFAC
 40
1.0
  9
$DIMTOFL
 70
     1
  9
$DIMTVP
 40
0.0
  9
$DIMTIX
 70
     0
  9
$DIMSOXD
 70
     0
  9
$DIMSAH
 70
     0
  9
$DIMBLK1
  1

  9
$DIMBLK2
  1

  9
$DIMSTYLE
  2
STANDARD
  9
$DIMCLRD
 70
     0
  9
$DIMCLRE
 70
     0
  9
$DIMCLRT
 70
     0
  9
$DIMTFAC
 40
1.0
  9
$DIMGAP
 40
10.0
  9
$LUNITS
 70
     2
  9
$LUPREC
 70
     4
  9
$SKETCHINC
 40
0.1
  9
$FILLETRAD
 40
100.0
  9
$AUNITS
 70
     0
  9
$AUPREC
 70
     0
  9
$MENU
  1
acad
  9
$ELEVATION
 40
0.0
  9
$PELEVATION
 40
0.0
  9
$THICKNESS
 40
0.0
  9
$LIMCHECK
 70
     0
  9
$BLIPMODE
 70
     0
  9
$CHAMFERA
 40
0.0
  9
$CHAMFERB
 40
0.0
  9
$SKPOLY
 70
     0
  9
$TDCREATE
 40
2456743.5973998029
  9
$TDUPDATE
 40
2457658.3663159721
  9
$TDINDWG
 40
1.2779360417000001
  9
$TDUSRTIMER
 40
2456743.4452263541
  9
$USRTIMER
 70
     1
  9
$ANGBASE
 50
0.0
  9
$ANGDIR
 70
     0
  9
$PDMODE
 70
     1
  9
$PDSIZE
 40
0.0
  9
$PLINEWID
 40
0.0
  9
$COORDS
 70
     2
  9
$SPLFRAME
 70
     0
  9
$SPLINETYPE
 70
     6
  9
$SPLINESEGS
 70
     8
  9
$ATTDIA
 70
     0
  9
$ATTREQ
 70
     1
  9
$HANDLING
 70
     1
  9
$HANDSEED
  5
A1BE
  9
$SURFTAB1
 70
     6
  9
$SURFTAB2
 70
     6
  9
$SURFTYPE
 70
     6
  9
$SURFU
 70
     6
  9
$SURFV
 70
     6
  9
$UCSNAME
  2

  9
$UCSORG
 10
979.94756024367962
 20
-2980.9795932347261
 30
0.0
  9
$UCSXDIR
 10
1.0
 20
0.0
 30
0.0
  9
$UCSYDIR
 10
0.0
 20
1.0
 30
0.0
  9
$PUCSNAME
  2

  9
$PUCSORG
 10
0.0
 20
0.0
 30
0.0
  9
$PUCSXDIR
 10
1.0
 20
0.0
 30
0.0
  9
$PUCSYDIR
 10
0.0
 20
1.0
 30
0.0
  9
$USERI1
 70
     0
  9
$USERI2
 70
     0
  9
$USERI3
 70
     0
  9
$USERI4
 70
     0
  9
$USERI5
 70
     0
  9
$USERR1
 40
0.0
  9
$USERR2
 40
0.0
  9
$USERR3
 40
0.0
  9
$USERR4
 40
0.0
  9
$USERR5
 40
0.0
  9
$WORLDVIEW
 70
     1
  9
$SHADEDGE
 70
     3
  9
$SHADEDIF
 70
    70
  9
$TILEMODE
 70
     1
  9
$MAXACTVP
 70
    16
  9
$PLIMCHECK
 70
     0
  9
$PEXTMIN
 10
29.066066288948051
 20
20.366566777229309
 30
0.0
  9
$PEXTMAX
 10
261.5945966005325
 20
183.29910099506381
 30
0.0
  9
$PLIMMIN
 10
-3.17498779296875
 20
-3.1749999523162842
  9
$PLIMMAX
 10
293.83566284179687
 20
206.8406708240509
  9
$UNITMODE
 70
     0
  9
$VISRETAIN
 70
     0
  9
$PLINEGEN
 70
     1
  9
$PSLTSCALE
 70
     0
  0
ENDSEC
  0
SECTION
  2
TABLES
  0
TABLE
  2
VPORT
 70
     1
  0
VPORT
  2
*ACTIVE
 70
     0
 10
0.0
 20
0.0
 11
1.0
 21
1.0
 12
2970.0000553235132
 22
2100.0000391176368
 13
0.0
 23
0.0
 14
1.0
 24
1.0
 15
0.0
 25
0.0
 16
0.0
 26
0.0
 36
1.0
 17
0.0
 27
0.0
 37
0.0
 40
4235.2907403779018
 41
2.656033287101248
 42
50.0
 43
0.0
 44
0.0
 50
0.0
 51
0.0
 71
     0
 72
   100
 73
     1
 74
     1
 75
     0
 76
     0
 77
     0
 78
     0
  0
ENDTAB
  0
TABLE
  2
LTYPE
 70
     3
  0
LTYPE
  2
CONTINUOUS
 70
     0
  3
Solid line
 72
    65
 73
     0
 40
0.0
  0
LTYPE
  2
PHANTOM2
 70
     0
  3
___ _ _ ___ _ _ ___ _ _ ___ _ _
 72
    65
 73
     6
 40
1.25
 49
0.625
 49
-0.125
 49
0.125
 49
-0.125
 49
0.125
 49
-0.125
  0
ENDTAB
  0
TABLE
  2
LAYER
 70
     4
  0
LAYER
  2
0
 70
     0
 62
     7
  6
CONTINUOUS
  0
LAYER
  2
DEFPOINTS
 70
     0
 62
     7
  6
CONTINUOUS
  0
LAYER
  2
用紙枠
 70
     0
 62
     7
  6
CONTINUOUS
  0
LAYER
  2
図面枠
 70
     0
 62
     7
  6
CONTINUOUS
  0
ENDTAB
  0
TABLE
  2
STYLE
 70
     2
  0
STYLE
  2
STANDARD
 70
     0
 40
0.0
 41
1.0
 50
0.0
 71
     0
 42
0.0
  3
txt.shx
  4
bigfont.shx
  0
STYLE
  2
ANNOTATIVE
 70
     0
 40
0.0
 41
1.0
 50
0.0
 71
     0
 42
0.2
  3
txt
  4

  0
ENDTAB
  0
TABLE
  2
VIEW
 70
     0
  0
ENDTAB
  0
TABLE
  2
UCS
 70
     0
  0
ENDTAB
  0
TABLE
  2
APPID
 70
    20
  0
APPID
  2
ACAD
 70
     0
  0
APPID
  2
ACADANNOTATIVE
 70
     0
  0
APPID
  2
ACAD_EXEMPT_FROM_CAD_STANDARDS
 70
     0
  0
APPID
  2
ACAD_DSTYLE_DIMJAG
 70
     0
  0
APPID
  2
ACAD_DSTYLE_DIMTALN
 70
     0
  0
APPID
  2
ACAD_NAV_VCDISPLAY
 70
     0
  0
APPID
  2
ACAD_PSEXT
 70
     0
  0
APPID
  2
ACAECLAYERSTANDARD
 70
     0
  0
APPID
  2
ACCMTRANSPARENCY
 70
     0
  0
APPID
  2
ACADANNOAV
 70
     0
  0
APPID
  2
ACADANNOPO
 70
     0
  0
APPID
  2
ACAD_MLEADERVER
 70
     0
  0
APPID
  2
ACADSTRINGINFO
 70
     0
  0
APPID
  2
ACAD_DSTYLE_DIMBREAK
 70
     0
  0
APPID
  2
PLOTTRANSPARENCY
 70
     0
  0
APPID
  2
ACDBDYNAMICBLOCKGUID
 70
     0
  0
APPID
  2
ACAUTHENVIRON
 70
     0
  0
APPID
  2
ACLAYERTOOLS
 70
     0
  0
APPID
  2
ACDBDYNAMICBLOCKTRUENAME
 70
     0
  0
APPID
  2
ADESKUNDERLAYLAYEROVERRIDEDATA
 70
     0
  0
ENDTAB
  0
TABLE
  2
DIMSTYLE
 70
     2
  0
DIMSTYLE
  2
STANDARD
 70
     0
  3

  4

  5

  6

  7

 40
2.0
 41
35.0
 42
0.0625
 43
10.0
 44
0.18
 45
0.0
 46
0.0
 47
0.0
 48
0.0
140
35.0
141
0.09
142
0.0
143
25.399999999999999
144
1.0
145
0.0
146
1.0
147
10.0
 71
     0
 72
     0
 73
     0
 74
     0
 75
     0
 76
     0
 77
     3
 78
     0
170
     0
171
     2
172
     1
173
     0
174
     0
175
     0
176
     0
177
     0
178
     0
  0
DIMSTYLE
  2
ANNOTATIVE
 70
     0
  3

  4

  5

  6

  7

 40
1.0
 41
0.18
 42
0.0625
 43
0.38
 44
0.18
 45
0.0
 46
0.0
 47
0.0
 48
0.0
140
0.18
141
0.09
142
0.0
143
25.399999999999999
144
1.0
145
0.0
146
1.0
147
0.09
 71
     0
 72
     0
 73
     1
 74
     1
 75
     0
 76
     0
 77
     0
 78
     0
170
     0
171
     2
172
     0
173
     0
174
     0
175
     0
176
     0
177
     0
178
     0
  0
ENDTAB
  0
ENDSEC
  0
SECTION
  2
BLOCKS
  0
BLOCK
  8
0
  2
$MODEL_SPACE
 70
     0
 10
0.0
 20
0.0
 30
0.0
  3
$MODEL_SPACE
  1

  0
ENDBLK
  5
A140
  8
0
  0
BLOCK
 67
     1
  8
0
  2
$PAPER_SPACE
 70
     0
 10
0.0
 20
0.0
 30
0.0
  3
$PAPER_SPACE
  1

  0
ENDBLK
  5
A13C
 67
     1
  8
0
  0
BLOCK
  8
0
  2
_OPEN
 70
     0
 10
0.0
 20
0.0
 30
0.0
  3
_OPEN
  1

  0
LINE
  5
AB0
  8
0
  6
BYBLOCK
 62
     0
 10
-1.0
 20
0.1666666666666666
 30
0.0
 11
0.0
 21
0.0
 31
0.0
  0
LINE
  5
AB1
  8
0
  6
BYBLOCK
 62
     0
 10
-1.0
 20
-0.1666666666666666
 30
0.0
 11
0.0
 21
0.0
 31
0.0
  0
LINE
  5
AB2
  8
0
  6
BYBLOCK
 62
     0
 10
0.0
 20
0.0
 30
0.0
 11
-1.0
 21
0.0
 31
0.0
  0
ENDBLK
  5
AB4
  8
0
  0
BLOCK
  8
0
  2
_CLOSED
 70
     0
 10
0.0
 20
0.0
 30
0.0
  3
_CLOSED
  1

  0
LINE
  5
AB6
  8
0
  6
BYBLOCK
 62
     0
 10
-1.0
 20
0.1666666666666666
 30
0.0
 11
0.0
 21
0.0
 31
0.0
  0
LINE
  5
AB7
  8
0
  6
BYBLOCK
 62
     0
 10
0.0
 20
0.0
 30
0.0
 11
-1.0
 21
-0.1666666666666666
 31
0.0
  0
LINE
  5
AB8
  8
0
  6
BYBLOCK
 62
     0
 10
-1.0
 20
0.1666666666666666
 30
0.0
 11
-1.0
 21
-0.1666666666666666
 31
0.0
  0
LINE
  5
AB9
  8
0
  6
BYBLOCK
 62
     0
 10
0.0
 20
0.0
 30
0.0
 11
-1.0
 21
0.0
 31
0.0
  0
ENDBLK
  5
ABB
  8
0
  0
ENDSEC
  0
SECTION
  2
ENTITIES
  0
LINE
  5
FCA
  8
図面枠
 10
5740.0
 20
3786.777515104845
 30
0.0
 11
400.0
 21
3786.777515104845
 31
0.0
  0
TEXT
  5
1230
  8
図面枠
 10
500.0
 20
3836.777515104845
 30
0.0
 40
100.0
  1
太陽電池モジュール　TJM-240PP-WHT-J
 11
500.0
 21
3886.777515104845
 31
0.0
 73
     2
  0
LINE
  5
9B05
  8
0
 10
1117.0
 20
1349.888757552422
 30
0.0
 11
1117.0
 21
2636.8887575524218
 31
0.0
  0
LINE
  5
9B06
  8
0
 10
1091.0
 20
1362.888757552422
 30
0.0
 11
1091.0
 21
2623.8887575524232
 31
0.0
  0
LINE
  5
9B07
  8
0
 10
1169.0
 20
1349.888757552422
 30
0.0
 11
1169.0
 21
2636.8887575524218
 31
0.0
  0
LINE
  5
9B08
  8
0
 10
1221.0
 20
1349.888757552422
 30
0.0
 11
1221.0
 21
2636.8887575524218
 31
0.0
  0
LINE
  5
9B09
  8
0
 10
1273.0
 20
1349.888757552422
 30
0.0
 11
1273.0
 21
2636.8887575524218
 31
0.0
  0
LINE
  5
9B0A
  8
0
 10
1325.0
 20
1349.888757552422
 30
0.0
 11
1325.0
 21
2636.8887575524218
 31
0.0
  0
LINE
  5
9B0B
  8
0
 10
1377.0
 20
1349.888757552422
 30
0.0
 11
1377.0
 21
2636.8887575524218
 31
0.0
  0
LINE
  5
9B0D
  8
0
 10
1247.0
 20
1349.888757552422
 30
0.0
 11
1247.0
 21
2636.8887575524218
 31
0.0
  0
LINE
  5
9B0E
  8
0
 10
1403.0
 20
1362.888757552422
 30
0.0
 11
1403.0
 21
2623.8887575524218
 31
0.0
  0
LINE
  5
9BBF
  8
0
 10
1432.0
 20
1349.888757552422
 30
0.0
 11
1432.0
 21
2636.8887575524218
 31
0.0
  0
LINE
  5
9BC0
  8
0
 10
1484.0
 20
1349.888757552422
 30
0.0
 11
1484.0
 21
2636.8887575524218
 31
0.0
  0
LINE
  5
9BC1
  8
0
 10
1536.0
 20
1349.888757552422
 30
0.0
 11
1536.0
 21
2636.8887575524218
 31
0.0
  0
LINE
  5
9BC2
  8
0
 10
1562.0
 20
1349.888757552422
 30
0.0
 11
1562.0
 21
2636.8887575524218
 31
0.0
  0
LINE
  5
9BC3
  8
0
 10
1588.0
 20
1349.888757552422
 30
0.0
 11
1588.0
 21
2636.8887575524218
 31
0.0
  0
LINE
  5
9BC4
  8
0
 10
1640.0
 20
1349.888757552422
 30
0.0
 11
1640.0
 21
2636.8887575524218
 31
0.0
  0
LINE
  5
9BC5
  8
0
 10
1692.0
 20
1349.888757552422
 30
0.0
 11
1692.0
 21
2636.8887575524218
 31
0.0
  0
LINE
  5
9BC6
  8
0
 10
1718.0
 20
1362.888757552422
 30
0.0
 11
1718.0
 21
2623.8887575524218
 31
0.0
  0
LINE
  5
9BC7
  8
0
 10
1406.0
 20
1362.888757552422
 30
0.0
 11
1406.0
 21
2623.8887575524218
 31
0.0
  0
LINE
  5
9BD1
  8
0
 10
1747.0
 20
1349.888757552422
 30
0.0
 11
1747.0
 21
2636.8887575524218
 31
0.0
  0
LINE
  5
9BD2
  8
0
 10
1799.0
 20
1349.888757552422
 30
0.0
 11
1799.0
 21
2636.8887575524218
 31
0.0
  0
LINE
  5
9BD3
  8
0
 10
1851.0
 20
1349.888757552422
 30
0.0
 11
1851.0
 21
2636.8887575524218
 31
0.0
  0
LINE
  5
9BD4
  8
0
 10
1877.0
 20
1349.888757552422
 30
0.0
 11
1877.0
 21
2636.8887575524218
 31
0.0
  0
LINE
  5
9BD5
  8
0
 10
1903.0
 20
1349.888757552422
 30
0.0
 11
1903.0
 21
2636.8887575524218
 31
0.0
  0
LINE
  5
9BD6
  8
0
 10
1955.0
 20
1349.888757552422
 30
0.0
 11
1955.0
 21
2636.8887575524218
 31
0.0
  0
LINE
  5
9BD7
  8
0
 10
2007.0
 20
1349.888757552422
 30
0.0
 11
2007.0
 21
2636.8887575524218
 31
0.0
  0
LINE
  5
9BD8
  8
0
 10
2033.0
 20
1362.888757552422
 30
0.0
 11
2033.0
 21
2623.8887575524218
 31
0.0
  0
LINE
  5
9BD9
  8
0
 10
1721.0
 20
1362.888757552422
 30
0.0
 11
1721.0
 21
2623.8887575524218
 31
0.0
  0
LINE
  5
9BFB
  8
0
 10
1091.0000000000009
 20
2152.8887575524218
 30
0.0
 11
2033.0
 21
2152.8887575524218
 31
0.0
  0
LINE
  5
9BFC
  8
0
 10
1091.0000000000009
 20
2149.8887575524218
 30
0.0
 11
2033.0
 21
2149.8887575524218
 31
0.0
  0
LINE
  5
9BFD
  8
0
 10
1091.0000000000009
 20
2307.8887575524218
 30
0.0
 11
2033.0000000000009
 21
2307.8887575524218
 31
0.0
  0
LINE
  5
9BFE
  8
0
 10
1091.0000000000009
 20
2310.8887575524218
 30
0.0
 11
2033.0000000000009
 21
2310.8887575524218
 31
0.0
  0
LINE
  5
9BFF
  8
0
 10
1091.000000000002
 20
2465.8887575524218
 30
0.0
 11
2033.0000000000009
 21
2465.8887575524218
 31
0.0
  0
LINE
  5
9C00
  8
0
 10
1091.000000000002
 20
2468.8887575524218
 30
0.0
 11
2033.0000000000009
 21
2468.8887575524218
 31
0.0
  0
LINE
  5
9C01
  8
0
 10
1091.000000000002
 20
2623.8887575524232
 30
0.0
 11
2033.0000000000009
 21
2623.8887575524218
 31
0.0
  0
LINE
  5
9C03
  8
0
 10
1091.0000000000009
 20
1991.888757552422
 30
0.0
 11
2033.0
 21
1991.888757552422
 31
0.0
  0
LINE
  5
9C04
  8
0
 10
1091.0000000000009
 20
1994.888757552422
 30
0.0
 11
2033.0
 21
1994.888757552422
 31
0.0
  0
LINE
  5
9C05
  8
0
 10
1091.0000000000009
 20
1833.888757552422
 30
0.0
 11
2033.0
 21
1833.888757552422
 31
0.0
  0
LINE
  5
9C06
  8
0
 10
1091.0000000000009
 20
1836.888757552422
 30
0.0
 11
2033.0
 21
1836.888757552422
 31
0.0
  0
LINE
  5
9C07
  8
0
 10
1091.0000000000009
 20
1675.888757552422
 30
0.0
 11
2032.9999999999991
 21
1675.888757552422
 31
0.0
  0
LINE
  5
9C08
  8
0
 10
1091.0000000000009
 20
1678.888757552422
 30
0.0
 11
2032.9999999999991
 21
1678.888757552422
 31
0.0
  0
LINE
  5
9C09
  8
0
 10
1091.0
 20
1517.8887575524211
 30
0.0
 11
2032.9999999999991
 21
1517.8887575524211
 31
0.0
  0
LINE
  5
9C0A
  8
0
 10
1091.0
 20
1520.888757552422
 30
0.0
 11
2032.9999999999991
 21
1520.888757552422
 31
0.0
  0
LINE
  5
9C0C
  8
0
 10
1091.0
 20
1362.888757552422
 30
0.0
 11
2032.9999999999991
 21
1362.888757552422
 31
0.0
  0
LINE
  5
9C8A
  8
0
 10
2041.5
 20
1346.388757552422
 30
0.0
 11
2053.5
 21
1334.388757552422
 31
0.0
  0
LINE
  5
9C8B
  8
0
 10
1082.5
 20
1346.388757552422
 30
0.0
 11
1070.5
 21
1334.388757552422
 31
0.0
  0
LINE
  5
9C8C
  8
0
 10
1082.5
 20
2640.3887575524218
 30
0.0
 11
1070.5
 21
2652.3887575524232
 31
0.0
  0
LINE
  5
9C8D
  8
0
 10
2041.5
 20
2640.3887575524218
 30
0.0
 11
2053.5
 21
2652.3887575524232
 31
0.0
  0
LINE
  5
9DA5
  8
0
 10
2365.0
 20
1334.388757552422
 30
0.0
 11
2365.0
 21
2652.3887575524232
 31
0.0
  0
LINE
  5
9DA6
  8
0
 10
2376.5
 20
1334.388757552422
 30
0.0
 11
2376.5
 21
2652.3887575524232
 31
0.0
  0
LINE
  5
9DA7
  8
0
 10
2388.0
 20
1334.388757552422
 30
0.0
 11
2388.0
 21
2652.3887575524232
 31
0.0
  0
LINE
  5
9E79
  8
0
 10
2353.5
 20
2652.5137575524218
 30
0.0
 11
2353.5
 21
2853.108757552423
 31
0.0
  0
LINE
  5
9E7A
  8
0
 10
2399.5
 20
2652.5137575524218
 30
0.0
 11
2399.5
 21
2853.108757552423
 31
0.0
  0
LINE
  5
9E7B
  8
0
 10
2283.5
 20
2852.7487575524242
 30
0.0
 11
2213.5
 21
2852.7487575524242
 31
0.0
  0
LINE
  5
9E7C
  8
0
 10
2469.5
 20
2852.7487575524242
 30
0.0
 11
2672.170454545455
 21
2852.7487575524242
 31
0.0
  0
LINE
  5
9E7D
  8
0
 10
2353.5
 20
2852.7487575524242
 30
0.0
 11
2399.5
 21
2852.7487575524242
 31
0.0
  0
LINE
  5
9E81
  8
0
 10
2053.5
 20
2652.5137575524218
 30
0.0
 11
2053.5
 21
2852.7487575524219
 31
0.0
  0
LINE
  5
9E82
  8
0
 10
1070.5
 20
2652.5137575524218
 30
0.0
 11
1070.5
 21
2852.7487575524219
 31
0.0
  0
LINE
  5
9E83
  8
0
 10
1983.5
 20
2852.3887575524218
 30
0.0
 11
1140.5
 21
2852.3887575524218
 31
0.0
  0
LINE
  5
9E87
  8
0
 10
2053.625
 20
2652.3887575524232
 30
0.0
 11
2153.8600000000001
 21
2652.3887575524232
 31
0.0
  0
LINE
  5
9E88
  8
0
 10
2053.625
 20
1334.388757552422
 30
0.0
 11
2153.8600000000001
 21
1334.388757552422
 31
0.0
  0
LINE
  5
9E89
  8
0
 10
2153.5
 20
2582.3887575524218
 30
0.0
 11
2153.5
 21
1404.388757552422
 31
0.0
  0
LINE
  5
9E8D
  8
0
 10
2353.5
 20
1334.388757552422
 30
0.0
 11
2399.5
 21
1334.388757552422
 31
0.0
  0
LINE
  5
9E8E
  8
0
 10
2399.5
 20
1334.388757552422
 30
0.0
 11
2399.5
 21
2652.3887575524232
 31
0.0
  0
LINE
  5
9E8F
  8
0
 10
2399.5
 20
2652.3887575524232
 30
0.0
 11
2353.5
 21
2652.3887575524232
 31
0.0
  0
LINE
  5
9E90
  8
0
 10
2353.5
 20
2652.3887575524232
 30
0.0
 11
2353.5
 21
1334.388757552422
 31
0.0
  0
LINE
  5
9E91
  8
0
 10
1744.0
 20
2636.8887575524218
 30
0.0
 11
2010.0
 21
2636.8887575524218
 31
0.0
  0
LINE
  5
9E92
  8
0
 10
2010.0
 20
2636.8887575524218
 30
0.0
 11
2010.0
 21
2626.8887575524218
 31
0.0
  0
LINE
  5
9E93
  8
0
 10
2010.0
 20
2626.8887575524218
 30
0.0
 11
1744.0
 21
2626.8887575524218
 31
0.0
  0
LINE
  5
9E94
  8
0
 10
1744.0
 20
2626.8887575524218
 30
0.0
 11
1744.0
 21
2636.8887575524218
 31
0.0
  0
LINE
  5
9E95
  8
0
 10
1429.0
 20
2636.8887575524218
 30
0.0
 11
1695.0
 21
2636.8887575524218
 31
0.0
  0
LINE
  5
9E96
  8
0
 10
1695.0
 20
2636.8887575524218
 30
0.0
 11
1695.0
 21
2626.8887575524218
 31
0.0
  0
LINE
  5
9E97
  8
0
 10
1695.0
 20
2626.8887575524218
 30
0.0
 11
1429.0
 21
2626.8887575524218
 31
0.0
  0
LINE
  5
9E98
  8
0
 10
1429.0
 20
2626.8887575524218
 30
0.0
 11
1429.0
 21
2636.8887575524218
 31
0.0
  0
LINE
  5
9E99
  8
0
 10
1114.0
 20
2636.8887575524218
 30
0.0
 11
1380.0
 21
2636.8887575524218
 31
0.0
  0
LINE
  5
9E9A
  8
0
 10
1380.0
 20
2636.8887575524218
 30
0.0
 11
1380.0
 21
2626.8887575524218
 31
0.0
  0
LINE
  5
9E9B
  8
0
 10
1380.0
 20
2626.8887575524218
 30
0.0
 11
1114.0
 21
2626.8887575524218
 31
0.0
  0
LINE
  5
9E9C
  8
0
 10
1114.0
 20
2626.8887575524218
 30
0.0
 11
1114.0
 21
2636.8887575524218
 31
0.0
  0
LINE
  5
9E9D
  8
0
 10
1744.0
 20
1359.888757552422
 30
0.0
 11
2010.0
 21
1359.888757552422
 31
0.0
  0
LINE
  5
9E9E
  8
0
 10
2010.0
 20
1359.888757552422
 30
0.0
 11
2010.0
 21
1349.888757552422
 31
0.0
  0
LINE
  5
9E9F
  8
0
 10
2010.0
 20
1349.888757552422
 30
0.0
 11
1744.0
 21
1349.888757552422
 31
0.0
  0
LINE
  5
9EA0
  8
0
 10
1744.0
 20
1349.888757552422
 30
0.0
 11
1744.0
 21
1359.888757552422
 31
0.0
  0
LINE
  5
9EA1
  8
0
 10
1429.0
 20
1359.888757552422
 30
0.0
 11
1695.0
 21
1359.888757552422
 31
0.0
  0
LINE
  5
9EA2
  8
0
 10
1695.0
 20
1359.888757552422
 30
0.0
 11
1695.0
 21
1349.888757552422
 31
0.0
  0
LINE
  5
9EA3
  8
0
 10
1695.0
 20
1349.888757552422
 30
0.0
 11
1429.0
 21
1349.888757552422
 31
0.0
  0
LINE
  5
9EA4
  8
0
 10
1429.0
 20
1349.888757552422
 30
0.0
 11
1429.0
 21
1359.888757552422
 31
0.0
  0
LINE
  5
9EA5
  8
0
 10
1114.0
 20
1359.888757552422
 30
0.0
 11
1380.0
 21
1359.888757552422
 31
0.0
  0
LINE
  5
9EA6
  8
0
 10
1380.0
 20
1359.888757552422
 30
0.0
 11
1380.0
 21
1349.888757552422
 31
0.0
  0
LINE
  5
9EA7
  8
0
 10
1380.0
 20
1349.888757552422
 30
0.0
 11
1114.0
 21
1349.888757552422
 31
0.0
  0
LINE
  5
9EA8
  8
0
 10
1114.0
 20
1349.888757552422
 30
0.0
 11
1114.0
 21
1359.888757552422
 31
0.0
  0
LINE
  5
9EA9
  8
0
 10
2041.5
 20
1346.388757552422
 30
0.0
 11
1082.5
 21
1346.388757552422
 31
0.0
  0
LINE
  5
9EAA
  8
0
 10
1082.5
 20
1346.388757552422
 30
0.0
 11
1082.5
 21
2640.3887575524218
 31
0.0
  0
LINE
  5
9EAB
  8
0
 10
1082.5
 20
2640.3887575524218
 30
0.0
 11
2041.5
 21
2640.3887575524218
 31
0.0
  0
LINE
  5
9EAC
  8
0
 10
2041.5
 20
2640.3887575524218
 30
0.0
 11
2041.5
 21
1346.388757552422
 31
0.0
  0
LINE
  5
9EAD
  8
0
 10
2053.5
 20
1334.388757552422
 30
0.0
 11
1070.5
 21
1334.388757552422
 31
0.0
  0
LINE
  5
9EAE
  8
0
 10
1070.5
 20
1334.388757552422
 30
0.0
 11
1070.5
 21
2652.3887575524232
 31
0.0
  0
LINE
  5
9EAF
  8
0
 10
1070.5
 20
2652.3887575524232
 30
0.0
 11
2053.5
 21
2652.3887575524232
 31
0.0
  0
LINE
  5
9EB0
  8
0
 10
2053.5
 20
2652.3887575524232
 30
0.0
 11
2053.5
 21
1334.388757552422
 31
0.0
  0
LINE
  5
9EC7
  8
0
 10
3655.0
 20
2543.3887575524232
 30
0.0
 11
5155.0
 21
2543.3887575524232
 31
0.0
  0
LINE
  5
9EC8
  8
0
 10
3655.0
 20
2443.3887575524232
 30
0.0
 11
5155.0
 21
2443.3887575524232
 31
0.0
  0
LINE
  5
9EC9
  8
0
 10
3655.0
 20
2343.3887575524232
 30
0.0
 11
5155.0
 21
2343.3887575524232
 31
0.0
  0
LINE
  5
9ECA
  8
0
 10
3655.0
 20
2243.3887575524218
 30
0.0
 11
5155.0
 21
2243.3887575524218
 31
0.0
  0
LINE
  5
9ECB
  8
0
 10
3655.0
 20
2143.3887575524218
 30
0.0
 11
5155.0
 21
2143.3887575524218
 31
0.0
  0
LINE
  5
9ECC
  8
0
 10
3655.0
 20
2043.388757552422
 30
0.0
 11
5155.0
 21
2043.388757552422
 31
0.0
  0
LINE
  5
9ECD
  8
0
 10
3655.0
 20
1943.388757552422
 30
0.0
 11
5155.0
 21
1943.388757552422
 31
0.0
  0
LINE
  5
9ECE
  8
0
 10
3655.0
 20
1843.3887575524211
 30
0.0
 11
5155.0
 21
1843.3887575524211
 31
0.0
  0
LINE
  5
9ECF
  8
0
 10
3655.0
 20
1743.388757552422
 30
0.0
 11
5155.0
 21
1743.388757552422
 31
0.0
  0
LINE
  5
9ED0
  8
0
 10
3655.0
 20
1643.3887575524211
 30
0.0
 11
5155.0
 21
1643.3887575524211
 31
0.0
  0
LINE
  5
9ED1
  8
0
 10
3655.0
 20
1543.388757552422
 30
0.0
 11
5155.0
 21
1543.388757552422
 31
0.0
  0
LINE
  5
9ED2
  8
0
 10
3655.0
 20
1443.388757552422
 30
0.0
 11
5155.0
 21
1443.388757552422
 31
0.0
  0
LINE
  5
9ED3
  8
0
 10
3655.0
 20
2543.3887575524232
 30
0.0
 11
3655.0
 21
1443.388757552422
 31
0.0
  0
LINE
  5
9ED4
  8
0
 10
4355.0
 20
2543.3887575524232
 30
0.0
 11
4355.0
 21
1443.388757552422
 31
0.0
  0
LINE
  5
9ED5
  8
0
 10
5155.0
 20
2543.3887575524232
 30
0.0
 11
5155.0
 21
1443.388757552422
 31
0.0
  0
LINE
  5
9ED6
  8
0
 10
3655.0
 20
2543.3887575524232
 30
0.0
 11
3655.0
 21
2543.3887575524232
 31
0.0
  0
LINE
  5
9ED7
  8
図面枠
 10
5740.0
 20
200.0
 30
0.0
 11
5740.0
 21
4000.0
 31
0.0
  0
LINE
  5
9ED8
  8
図面枠
 10
5740.0
 20
4000.0
 30
0.0
 11
400.0
 21
4000.0
 31
0.0
  0
LINE
  5
9ED9
  8
図面枠
 10
400.0
 20
4000.0
 30
0.0
 11
400.0
 21
200.0
 31
0.0
  0
LINE
  5
9EDA
  8
図面枠
 10
400.0
 20
200.0
 30
0.0
 11
5740.0
 21
200.0
 31
0.0
  0
LINE
  5
9EDB
  8
用紙枠
 10
0.0
 20
0.0
 30
0.0
 11
5940.0
 21
0.0
 31
0.0
  0
LINE
  5
9EDC
  8
用紙枠
 10
5940.0
 20
0.0
 30
0.0
 11
5940.0
 21
4200.0
 31
0.0
  0
LINE
  5
9EDD
  8
用紙枠
 10
5940.0
 20
4200.0
 30
0.0
 11
0.0
 21
4200.0
 31
0.0
  0
LINE
  5
9EDE
  8
用紙枠
 10
0.0
 20
4200.0
 30
0.0
 11
0.0
 21
0.0
 31
0.0
  0
TEXT
  5
9EDF
  8
0
 10
4674.659090909091
 20
1473.729666643331
 30
0.0
 40
40.0
  1
14.8kg
  0
TEXT
  5
9EE0
  8
0
 10
3658.0
 20
1473.047848461513
 30
0.0
 40
40.0
  1
  質量
  0
TEXT
  5
9EE1
  8
0
 10
4547.2727272727261
 20
1576.116030279695
 30
0.0
 40
40.0
  1
1,318x983x46mm
  0
TEXT
  5
9EE2
  8
0
 10
3658.0
 20
1573.047848461513
 30
0.0
 40
40.0
  1
  外形寸法（WxHxD）
  0
TEXT
  5
9EE4
  8
0
 10
3658.0
 20
1672.9342120978761
 30
0.0
 40
40.0
  1
  最大システム電圧
  0
TEXT
  5
9EE6
  8
0
 10
3658.0
 20
1772.2523939160581
 30
0.0
 40
40.0
  1
  公称短絡電流
  0
TEXT
  5
9EE8
  8
0
 10
3658.0
 20
1872.479666643331
 30
0.0
 40
40.0
  1
  公称開放電圧
  0
TEXT
  5
9EEA
  8
0
 10
3658.0
 20
1972.593303006968
 30
0.0
 40
40.0
  1
  公称最大出力動作電流
  0
TEXT
  5
9EEC
  8
0
 10
3658.0
 20
2072.5933030069682
 30
0.0
 40
40.0
  1
  公称最大出力動作電圧
  0
TEXT
  5
9EED
  8
0
 10
4688.5227272727279
 20
2173.3887575524218
 30
0.0
 40
40.0
  1
240W
  0
TEXT
  5
9EEE
  8
0
 10
3658.0
 20
2172.4796666433308
 30
0.0
 40
40.0
  1
  公称最大出力
  0
TEXT
  5
9EEF
  8
0
 10
4688.75
 20
2273.3887575524218
 30
0.0
 40
40.0
  1
18.5%%%
  0
TEXT
  5
9EF0
  8
0
 10
3658.0
 20
2272.2523939160592
 30
0.0
 40
40.0
  1
  最大モジュール変換効率
  0
TEXT
  5
9EF1
  8
0
 10
4543.0681818181802
 20
2372.3660302796961
 30
0.0
 40
40.0
  1
シリコン単結晶系
  0
TEXT
  5
9EF2
  8
0
 10
3658.0
 20
2372.9342120978772
 30
0.0
 40
40.0
  1
  セル種類
  0
TEXT
  5
9EF3
  8
0
 10
4521.590909090909
 20
2473.3887575524218
 30
0.0
 40
40.0
  1
TJM-240PP-WHT-J
  0
TEXT
  5
9EF4
  8
0
 10
3658.0
 20
2471.9114848251488
 30
0.0
 40
40.0
  1
  型式
  0
TEXT
  5
9EF5
  8
0
 10
2133.5
 20
1888.587621188786
 30
0.0
 40
70.0
  1
1318
 50
90.0
  0
LINE
  5
9EF6
  8
0
 10
2165.166666666667
 20
1404.388757552422
 30
0.0
 11
2153.5
 21
1334.388757552422
 31
0.0
  0
LINE
  5
9EF7
  8
0
 10
2141.8333333333339
 20
1404.388757552422
 30
0.0
 11
2153.5
 21
1334.388757552422
 31
0.0
  0
LINE
  5
9EF8
  8
0
 10
2153.5
 20
1334.388757552422
 30
0.0
 11
2153.5
 21
1404.388757552422
 31
0.0
  0
LINE
  5
9EF9
  8
0
 10
2141.8333333333339
 20
2582.3887575524218
 30
0.0
 11
2153.5
 21
2652.3887575524232
 31
0.0
  0
LINE
  5
9EFA
  8
0
 10
2165.166666666667
 20
2582.3887575524218
 30
0.0
 11
2153.5
 21
2652.3887575524232
 31
0.0
  0
LINE
  5
9EFB
  8
0
 10
2153.5
 20
2652.3887575524232
 30
0.0
 11
2153.5
 21
2582.3887575524218
 31
0.0
  0
TEXT
  5
9EFC
  8
0
 10
1485.4375
 20
2872.3887575524232
 30
0.0
 40
70.0
  1
983
  0
LINE
  5
9EFD
  8
0
 10
1140.5
 20
2840.7220908857571
 30
0.0
 11
1070.5
 21
2852.3887575524218
 31
0.0
  0
LINE
  5
9EFE
  8
0
 10
1140.5
 20
2864.0554242190892
 30
0.0
 11
1070.5
 21
2852.3887575524218
 31
0.0
  0
LINE
  5
9EFF
  8
0
 10
1070.5
 20
2852.3887575524218
 30
0.0
 11
1140.5
 21
2852.3887575524218
 31
0.0
  0
LINE
  5
9F00
  8
0
 10
1983.5
 20
2864.0554242190892
 30
0.0
 11
2053.5
 21
2852.3887575524218
 31
0.0
  0
LINE
  5
9F01
  8
0
 10
1983.5
 20
2840.7220908857571
 30
0.0
 11
2053.5
 21
2852.3887575524218
 31
0.0
  0
LINE
  5
9F02
  8
0
 10
2053.5
 20
2852.3887575524218
 30
0.0
 11
1983.5
 21
2852.3887575524218
 31
0.0
  0
TEXT
  5
9F03
  8
0
 10
2555.920454545455
 20
2872.7487575524228
 30
0.0
 40
70.0
  1
46
  0
LINE
  5
9F04
  8
0
 10
2469.5
 20
2841.0820908857559
 30
0.0
 11
2399.5
 21
2852.7487575524242
 31
0.0
  0
LINE
  5
9F05
  8
0
 10
2469.5
 20
2864.4154242190889
 30
0.0
 11
2399.5
 21
2852.7487575524242
 31
0.0
  0
LINE
  5
9F06
  8
0
 10
2399.5
 20
2852.7487575524242
 30
0.0
 11
2469.5
 21
2852.7487575524242
 31
0.0
  0
LINE
  5
9F07
  8
0
 10
2283.5
 20
2864.4154242190889
 30
0.0
 11
2353.5
 21
2852.7487575524242
 31
0.0
  0
LINE
  5
9F08
  8
0
 10
2283.5
 20
2841.0820908857559
 30
0.0
 11
2353.5
 21
2852.7487575524242
 31
0.0
  0
LINE
  5
9F09
  8
0
 10
2353.5
 20
2852.7487575524242
 30
0.0
 11
2283.5
 21
2852.7487575524242
 31
0.0
  0
LINE
  5
9F81
  8
0
 10
1877.072599422537
 20
2484.5907643022701
 30
0.0
 11
1859.430939741065
 21
2467.3887575524218
 31
0.0
  0
LINE
  5
9F82
  8
0
 10
1894.3512619912351
 20
2467.3887575524218
 30
0.0
 11
1877.0
 21
2484.5907643022701
 31
0.0
  0
LINE
  5
9F83
  8
0
 10
1859.430939741065
 20
2467.3887575524218
 30
0.0
 11
1877.072599422537
 21
2450.168719348957
 31
0.0
  0
LINE
  5
9F84
  8
0
 10
1877.0
 20
2450.168719348957
 30
0.0
 11
1894.3512619912351
 21
2467.3887575524218
 31
0.0
  0
LINE
  5
9F89
  8
0
 10
1404.572599422537
 20
2484.5907643022701
 30
0.0
 11
1386.930939741065
 21
2467.3887575524218
 31
0.0
  0
LINE
  5
9F8A
  8
0
 10
1421.8512619912351
 20
2467.3887575524218
 30
0.0
 11
1404.5
 21
2484.5907643022701
 31
0.0
  0
LINE
  5
9F8B
  8
0
 10
1386.930939741065
 20
2467.3887575524218
 30
0.0
 11
1404.572599422537
 21
2450.168719348957
 31
0.0
  0
LINE
  5
9F8C
  8
0
 10
1404.5
 20
2450.168719348957
 30
0.0
 11
1421.8512619912351
 21
2467.3887575524218
 31
0.0
  0
LINE
  5
9F8D
  8
0
 10
1247.072599422537
 20
2484.5907643022701
 30
0.0
 11
1229.4309397410641
 21
2467.3887575524218
 31
0.0
  0
LINE
  5
9F8E
  8
0
 10
1264.351261991234
 20
2467.3887575524218
 30
0.0
 11
1247.0
 21
2484.5907643022701
 31
0.0
  0
LINE
  5
9F8F
  8
0
 10
1229.4309397410641
 20
2467.3887575524218
 30
0.0
 11
1247.072599422537
 21
2450.168719348957
 31
0.0
  0
LINE
  5
9F90
  8
0
 10
1247.0
 20
2450.168719348957
 30
0.0
 11
1264.351261991234
 21
2467.3887575524218
 31
0.0
  0
LINE
  5
9F91
  8
0
 10
1562.072599422537
 20
2484.5907643022701
 30
0.0
 11
1544.4309397410641
 21
2467.3887575524218
 31
0.0
  0
LINE
  5
9F92
  8
0
 10
1579.3512619912351
 20
2467.3887575524218
 30
0.0
 11
1562.0
 21
2484.5907643022701
 31
0.0
  0
LINE
  5
9F93
  8
0
 10
1544.4309397410641
 20
2467.3887575524218
 30
0.0
 11
1562.072599422537
 21
2450.168719348957
 31
0.0
  0
LINE
  5
9F94
  8
0
 10
1562.0
 20
2450.168719348957
 30
0.0
 11
1579.3512619912351
 21
2467.3887575524218
 31
0.0
  0
LINE
  5
9F9C
  8
0
 10
1719.5725994225361
 20
2484.5907643022701
 30
0.0
 11
1737.214259104009
 21
2467.3887575524218
 31
0.0
  0
LINE
  5
9F9D
  8
0
 10
1702.2939368538391
 20
2467.3887575524218
 30
0.0
 11
1719.645198845074
 21
2484.5907643022701
 31
0.0
  0
LINE
  5
9F9E
  8
0
 10
1737.214259104009
 20
2467.3887575524218
 30
0.0
 11
1719.5725994225361
 21
2450.168719348957
 31
0.0
  0
LINE
  5
9F9F
  8
0
 10
1719.645198845074
 20
2450.168719348957
 30
0.0
 11
1702.2939368538391
 21
2467.3887575524218
 31
0.0
  0
LINE
  5
9FA0
  8
0
 10
1877.0725994225361
 20
2326.5907643022701
 30
0.0
 11
1859.4309397410641
 21
2309.3887575524218
 31
0.0
  0
LINE
  5
9FA1
  8
0
 10
1894.351261991234
 20
2309.3887575524218
 30
0.0
 11
1876.9999999999991
 21
2326.5907643022701
 31
0.0
  0
LINE
  5
9FA2
  8
0
 10
1859.4309397410641
 20
2309.3887575524218
 30
0.0
 11
1877.0725994225361
 21
2292.168719348957
 31
0.0
  0
LINE
  5
9FA3
  8
0
 10
1876.9999999999991
 20
2292.168719348957
 30
0.0
 11
1894.351261991234
 21
2309.3887575524218
 31
0.0
  0
LINE
  5
9FA4
  8
0
 10
1404.5725994225361
 20
2326.5907643022701
 30
0.0
 11
1386.9309397410641
 21
2309.3887575524218
 31
0.0
  0
LINE
  5
9FA5
  8
0
 10
1421.851261991234
 20
2309.3887575524218
 30
0.0
 11
1404.4999999999991
 21
2326.5907643022701
 31
0.0
  0
LINE
  5
9FA6
  8
0
 10
1386.9309397410641
 20
2309.3887575524218
 30
0.0
 11
1404.5725994225361
 21
2292.168719348957
 31
0.0
  0
LINE
  5
9FA7
  8
0
 10
1404.4999999999991
 20
2292.168719348957
 30
0.0
 11
1421.851261991234
 21
2309.3887575524218
 31
0.0
  0
LINE
  5
9FA8
  8
0
 10
1247.0725994225361
 20
2326.5907643022701
 30
0.0
 11
1229.430939741063
 21
2309.3887575524218
 31
0.0
  0
LINE
  5
9FA9
  8
0
 10
1264.351261991234
 20
2309.3887575524218
 30
0.0
 11
1246.9999999999991
 21
2326.5907643022701
 31
0.0
  0
LINE
  5
9FAA
  8
0
 10
1229.430939741063
 20
2309.3887575524218
 30
0.0
 11
1247.0725994225361
 21
2292.168719348957
 31
0.0
  0
LINE
  5
9FAB
  8
0
 10
1246.9999999999991
 20
2292.168719348957
 30
0.0
 11
1264.351261991234
 21
2309.3887575524218
 31
0.0
  0
LINE
  5
9FAC
  8
0
 10
1562.0725994225361
 20
2326.5907643022701
 30
0.0
 11
1544.4309397410641
 21
2309.3887575524218
 31
0.0
  0
LINE
  5
9FAD
  8
0
 10
1579.351261991234
 20
2309.3887575524218
 30
0.0
 11
1561.9999999999991
 21
2326.5907643022701
 31
0.0
  0
LINE
  5
9FAE
  8
0
 10
1544.4309397410641
 20
2309.3887575524218
 30
0.0
 11
1562.0725994225361
 21
2292.168719348957
 31
0.0
  0
LINE
  5
9FAF
  8
0
 10
1561.9999999999991
 20
2292.168719348957
 30
0.0
 11
1579.351261991234
 21
2309.3887575524218
 31
0.0
  0
LINE
  5
9FB0
  8
0
 10
1719.5725994225361
 20
2326.5907643022701
 30
0.0
 11
1737.2142591040081
 21
2309.3887575524218
 31
0.0
  0
LINE
  5
9FB1
  8
0
 10
1702.293936853838
 20
2309.3887575524218
 30
0.0
 11
1719.6451988450731
 21
2326.5907643022701
 31
0.0
  0
LINE
  5
9FB2
  8
0
 10
1737.2142591040081
 20
2309.3887575524218
 30
0.0
 11
1719.5725994225361
 21
2292.168719348957
 31
0.0
  0
LINE
  5
9FB3
  8
0
 10
1719.6451988450731
 20
2292.168719348957
 30
0.0
 11
1702.293936853838
 21
2309.3887575524218
 31
0.0
  0
LINE
  5
9FB4
  8
0
 10
1877.0725994225361
 20
2168.5907643022701
 30
0.0
 11
1859.4309397410641
 21
2151.3887575524218
 31
0.0
  0
LINE
  5
9FB5
  8
0
 10
1894.351261991234
 20
2151.3887575524218
 30
0.0
 11
1876.9999999999991
 21
2168.5907643022701
 31
0.0
  0
LINE
  5
9FB6
  8
0
 10
1859.4309397410641
 20
2151.3887575524218
 30
0.0
 11
1877.0725994225361
 21
2134.168719348957
 31
0.0
  0
LINE
  5
9FB7
  8
0
 10
1876.9999999999991
 20
2134.168719348957
 30
0.0
 11
1894.351261991234
 21
2151.3887575524218
 31
0.0
  0
LINE
  5
9FB8
  8
0
 10
1404.5725994225361
 20
2168.5907643022701
 30
0.0
 11
1386.9309397410641
 21
2151.3887575524218
 31
0.0
  0
LINE
  5
9FB9
  8
0
 10
1421.851261991234
 20
2151.3887575524218
 30
0.0
 11
1404.4999999999991
 21
2168.5907643022701
 31
0.0
  0
LINE
  5
9FBA
  8
0
 10
1386.9309397410641
 20
2151.3887575524218
 30
0.0
 11
1404.5725994225361
 21
2134.168719348957
 31
0.0
  0
LINE
  5
9FBB
  8
0
 10
1404.4999999999991
 20
2134.168719348957
 30
0.0
 11
1421.851261991234
 21
2151.3887575524218
 31
0.0
  0
LINE
  5
9FBC
  8
0
 10
1247.0725994225361
 20
2168.5907643022701
 30
0.0
 11
1229.430939741063
 21
2151.3887575524218
 31
0.0
  0
LINE
  5
9FBD
  8
0
 10
1264.351261991234
 20
2151.3887575524218
 30
0.0
 11
1246.9999999999991
 21
2168.5907643022701
 31
0.0
  0
LINE
  5
9FBE
  8
0
 10
1229.430939741063
 20
2151.3887575524218
 30
0.0
 11
1247.0725994225361
 21
2134.168719348957
 31
0.0
  0
LINE
  5
9FBF
  8
0
 10
1246.9999999999991
 20
2134.168719348957
 30
0.0
 11
1264.351261991234
 21
2151.3887575524218
 31
0.0
  0
LINE
  5
9FC0
  8
0
 10
1562.0725994225361
 20
2168.5907643022701
 30
0.0
 11
1544.4309397410641
 21
2151.3887575524218
 31
0.0
  0
LINE
  5
9FC1
  8
0
 10
1579.351261991234
 20
2151.3887575524218
 30
0.0
 11
1561.9999999999991
 21
2168.5907643022701
 31
0.0
  0
LINE
  5
9FC2
  8
0
 10
1544.4309397410641
 20
2151.3887575524218
 30
0.0
 11
1562.0725994225361
 21
2134.168719348957
 31
0.0
  0
LINE
  5
9FC3
  8
0
 10
1561.9999999999991
 20
2134.168719348957
 30
0.0
 11
1579.351261991234
 21
2151.3887575524218
 31
0.0
  0
LINE
  5
9FC4
  8
0
 10
1719.5725994225361
 20
2168.5907643022701
 30
0.0
 11
1737.2142591040081
 21
2151.3887575524218
 31
0.0
  0
LINE
  5
9FC5
  8
0
 10
1702.293936853838
 20
2151.3887575524218
 30
0.0
 11
1719.6451988450731
 21
2168.5907643022701
 31
0.0
  0
LINE
  5
9FC6
  8
0
 10
1737.2142591040081
 20
2151.3887575524218
 30
0.0
 11
1719.5725994225361
 21
2134.168719348957
 31
0.0
  0
LINE
  5
9FC7
  8
0
 10
1719.6451988450731
 20
2134.168719348957
 30
0.0
 11
1702.293936853838
 21
2151.3887575524218
 31
0.0
  0
LINE
  5
9FC8
  8
0
 10
1877.0725994225361
 20
2010.5907643022699
 30
0.0
 11
1859.4309397410641
 21
1993.388757552422
 31
0.0
  0
LINE
  5
9FC9
  8
0
 10
1894.351261991234
 20
1993.388757552422
 30
0.0
 11
1876.9999999999991
 21
2010.5907643022699
 31
0.0
  0
LINE
  5
9FCA
  8
0
 10
1859.4309397410641
 20
1993.388757552422
 30
0.0
 11
1877.0725994225361
 21
1976.1687193489561
 31
0.0
  0
LINE
  5
9FCB
  8
0
 10
1876.9999999999991
 20
1976.1687193489561
 30
0.0
 11
1894.351261991234
 21
1993.388757552422
 31
0.0
  0
LINE
  5
9FCC
  8
0
 10
1404.5725994225361
 20
2010.5907643022699
 30
0.0
 11
1386.9309397410641
 21
1993.388757552422
 31
0.0
  0
LINE
  5
9FCD
  8
0
 10
1421.851261991234
 20
1993.388757552422
 30
0.0
 11
1404.4999999999991
 21
2010.5907643022699
 31
0.0
  0
LINE
  5
9FCE
  8
0
 10
1386.9309397410641
 20
1993.388757552422
 30
0.0
 11
1404.5725994225361
 21
1976.1687193489561
 31
0.0
  0
LINE
  5
9FCF
  8
0
 10
1404.4999999999991
 20
1976.1687193489561
 30
0.0
 11
1421.851261991234
 21
1993.388757552422
 31
0.0
  0
LINE
  5
9FD0
  8
0
 10
1247.0725994225361
 20
2010.5907643022699
 30
0.0
 11
1229.430939741063
 21
1993.388757552422
 31
0.0
  0
LINE
  5
9FD1
  8
0
 10
1264.351261991234
 20
1993.388757552422
 30
0.0
 11
1246.9999999999991
 21
2010.5907643022699
 31
0.0
  0
LINE
  5
9FD2
  8
0
 10
1229.430939741063
 20
1993.388757552422
 30
0.0
 11
1247.0725994225361
 21
1976.1687193489561
 31
0.0
  0
LINE
  5
9FD3
  8
0
 10
1246.9999999999991
 20
1976.1687193489561
 30
0.0
 11
1264.351261991234
 21
1993.388757552422
 31
0.0
  0
LINE
  5
9FD4
  8
0
 10
1562.0725994225361
 20
2010.5907643022699
 30
0.0
 11
1544.4309397410641
 21
1993.388757552422
 31
0.0
  0
LINE
  5
9FD5
  8
0
 10
1579.351261991234
 20
1993.388757552422
 30
0.0
 11
1561.9999999999991
 21
2010.5907643022699
 31
0.0
  0
LINE
  5
9FD6
  8
0
 10
1544.4309397410641
 20
1993.388757552422
 30
0.0
 11
1562.0725994225361
 21
1976.1687193489561
 31
0.0
  0
LINE
  5
9FD7
  8
0
 10
1561.9999999999991
 20
1976.1687193489561
 30
0.0
 11
1579.351261991234
 21
1993.388757552422
 31
0.0
  0
LINE
  5
9FD8
  8
0
 10
1719.5725994225361
 20
2010.5907643022699
 30
0.0
 11
1737.2142591040081
 21
1993.388757552422
 31
0.0
  0
LINE
  5
9FD9
  8
0
 10
1702.293936853838
 20
1993.388757552422
 30
0.0
 11
1719.6451988450731
 21
2010.5907643022699
 31
0.0
  0
LINE
  5
9FDA
  8
0
 10
1737.2142591040081
 20
1993.388757552422
 30
0.0
 11
1719.5725994225361
 21
1976.1687193489561
 31
0.0
  0
LINE
  5
9FDB
  8
0
 10
1719.6451988450731
 20
1976.1687193489561
 30
0.0
 11
1702.293936853838
 21
1993.388757552422
 31
0.0
  0
LINE
  5
9FDC
  8
0
 10
1877.072599422537
 20
1852.5907643022699
 30
0.0
 11
1859.430939741065
 21
1835.388757552422
 31
0.0
  0
LINE
  5
9FDD
  8
0
 10
1894.3512619912351
 20
1835.388757552422
 30
0.0
 11
1877.0
 21
1852.5907643022699
 31
0.0
  0
LINE
  5
9FDE
  8
0
 10
1859.430939741065
 20
1835.388757552422
 30
0.0
 11
1877.072599422537
 21
1818.1687193489561
 31
0.0
  0
LINE
  5
9FDF
  8
0
 10
1877.0
 20
1818.1687193489561
 30
0.0
 11
1894.3512619912351
 21
1835.388757552422
 31
0.0
  0
LINE
  5
9FE0
  8
0
 10
1404.572599422537
 20
1852.5907643022699
 30
0.0
 11
1386.930939741065
 21
1835.388757552422
 31
0.0
  0
LINE
  5
9FE1
  8
0
 10
1421.8512619912351
 20
1835.388757552422
 30
0.0
 11
1404.5
 21
1852.5907643022699
 31
0.0
  0
LINE
  5
9FE2
  8
0
 10
1386.930939741065
 20
1835.388757552422
 30
0.0
 11
1404.572599422537
 21
1818.1687193489561
 31
0.0
  0
LINE
  5
9FE3
  8
0
 10
1404.5
 20
1818.1687193489561
 30
0.0
 11
1421.8512619912351
 21
1835.388757552422
 31
0.0
  0
LINE
  5
9FE4
  8
0
 10
1247.072599422537
 20
1852.5907643022699
 30
0.0
 11
1229.430939741065
 21
1835.388757552422
 31
0.0
  0
LINE
  5
9FE5
  8
0
 10
1264.3512619912351
 20
1835.388757552422
 30
0.0
 11
1247.0
 21
1852.5907643022699
 31
0.0
  0
LINE
  5
9FE6
  8
0
 10
1229.430939741065
 20
1835.388757552422
 30
0.0
 11
1247.072599422537
 21
1818.1687193489561
 31
0.0
  0
LINE
  5
9FE7
  8
0
 10
1247.0
 20
1818.1687193489561
 30
0.0
 11
1264.3512619912351
 21
1835.388757552422
 31
0.0
  0
LINE
  5
9FE8
  8
0
 10
1562.072599422537
 20
1852.5907643022699
 30
0.0
 11
1544.430939741065
 21
1835.388757552422
 31
0.0
  0
LINE
  5
9FE9
  8
0
 10
1579.3512619912351
 20
1835.388757552422
 30
0.0
 11
1562.0
 21
1852.5907643022699
 31
0.0
  0
LINE
  5
9FEA
  8
0
 10
1544.430939741065
 20
1835.388757552422
 30
0.0
 11
1562.072599422537
 21
1818.1687193489561
 31
0.0
  0
LINE
  5
9FEB
  8
0
 10
1562.0
 20
1818.1687193489561
 30
0.0
 11
1579.3512619912351
 21
1835.388757552422
 31
0.0
  0
LINE
  5
9FEC
  8
0
 10
1719.572599422537
 20
1852.5907643022699
 30
0.0
 11
1737.214259104009
 21
1835.388757552422
 31
0.0
  0
LINE
  5
9FED
  8
0
 10
1702.2939368538391
 20
1835.388757552422
 30
0.0
 11
1719.645198845074
 21
1852.5907643022699
 31
0.0
  0
LINE
  5
9FEE
  8
0
 10
1737.214259104009
 20
1835.388757552422
 30
0.0
 11
1719.572599422537
 21
1818.1687193489561
 31
0.0
  0
LINE
  5
9FEF
  8
0
 10
1719.645198845074
 20
1818.1687193489561
 30
0.0
 11
1702.2939368538391
 21
1835.388757552422
 31
0.0
  0
LINE
  5
9FF0
  8
0
 10
1877.072599422537
 20
1694.5907643022699
 30
0.0
 11
1859.430939741065
 21
1677.388757552422
 31
0.0
  0
LINE
  5
9FF1
  8
0
 10
1894.3512619912351
 20
1677.388757552422
 30
0.0
 11
1877.0
 21
1694.5907643022699
 31
0.0
  0
LINE
  5
9FF2
  8
0
 10
1859.430939741065
 20
1677.388757552422
 30
0.0
 11
1877.072599422537
 21
1660.1687193489561
 31
0.0
  0
LINE
  5
9FF3
  8
0
 10
1877.0
 20
1660.1687193489561
 30
0.0
 11
1894.3512619912351
 21
1677.388757552422
 31
0.0
  0
LINE
  5
9FF4
  8
0
 10
1404.572599422537
 20
1694.5907643022699
 30
0.0
 11
1386.930939741065
 21
1677.388757552422
 31
0.0
  0
LINE
  5
9FF5
  8
0
 10
1421.8512619912351
 20
1677.388757552422
 30
0.0
 11
1404.5
 21
1694.5907643022699
 31
0.0
  0
LINE
  5
9FF6
  8
0
 10
1386.930939741065
 20
1677.388757552422
 30
0.0
 11
1404.572599422537
 21
1660.1687193489561
 31
0.0
  0
LINE
  5
9FF7
  8
0
 10
1404.5
 20
1660.1687193489561
 30
0.0
 11
1421.8512619912351
 21
1677.388757552422
 31
0.0
  0
LINE
  5
9FF8
  8
0
 10
1247.072599422537
 20
1694.5907643022699
 30
0.0
 11
1229.430939741065
 21
1677.388757552422
 31
0.0
  0
LINE
  5
9FF9
  8
0
 10
1264.3512619912351
 20
1677.388757552422
 30
0.0
 11
1247.0
 21
1694.5907643022699
 31
0.0
  0
LINE
  5
9FFA
  8
0
 10
1229.430939741065
 20
1677.388757552422
 30
0.0
 11
1247.072599422537
 21
1660.1687193489561
 31
0.0
  0
LINE
  5
9FFB
  8
0
 10
1247.0
 20
1660.1687193489561
 30
0.0
 11
1264.3512619912351
 21
1677.388757552422
 31
0.0
  0
LINE
  5
9FFC
  8
0
 10
1562.072599422537
 20
1694.5907643022699
 30
0.0
 11
1544.430939741065
 21
1677.388757552422
 31
0.0
  0
LINE
  5
9FFD
  8
0
 10
1579.3512619912351
 20
1677.388757552422
 30
0.0
 11
1562.0
 21
1694.5907643022699
 31
0.0
  0
LINE
  5
9FFE
  8
0
 10
1544.430939741065
 20
1677.388757552422
 30
0.0
 11
1562.072599422537
 21
1660.1687193489561
 31
0.0
  0
LINE
  5
9FFF
  8
0
 10
1562.0
 20
1660.1687193489561
 30
0.0
 11
1579.3512619912351
 21
1677.388757552422
 31
0.0
  0
LINE
  5
A000
  8
0
 10
1719.572599422537
 20
1694.5907643022699
 30
0.0
 11
1737.214259104009
 21
1677.388757552422
 31
0.0
  0
LINE
  5
A001
  8
0
 10
1702.2939368538391
 20
1677.388757552422
 30
0.0
 11
1719.645198845074
 21
1694.5907643022699
 31
0.0
  0
LINE
  5
A002
  8
0
 10
1737.214259104009
 20
1677.388757552422
 30
0.0
 11
1719.572599422537
 21
1660.1687193489561
 31
0.0
  0
LINE
  5
A003
  8
0
 10
1719.645198845074
 20
1660.1687193489561
 30
0.0
 11
1702.2939368538391
 21
1677.388757552422
 31
0.0
  0
LINE
  5
A004
  8
0
 10
1877.072599422534
 20
1536.590764302269
 30
0.0
 11
1859.430939741062
 21
1519.388757552422
 31
0.0
  0
LINE
  5
A005
  8
0
 10
1894.3512619912319
 20
1519.388757552422
 30
0.0
 11
1876.999999999998
 21
1536.590764302269
 31
0.0
  0
LINE
  5
A006
  8
0
 10
1859.430939741062
 20
1519.388757552422
 30
0.0
 11
1877.072599422534
 21
1502.1687193489561
 31
0.0
  0
LINE
  5
A007
  8
0
 10
1876.999999999998
 20
1502.1687193489561
 30
0.0
 11
1894.3512619912319
 21
1519.388757552422
 31
0.0
  0
LINE
  5
A008
  8
0
 10
1404.5725994225349
 20
1536.590764302269
 30
0.0
 11
1386.930939741063
 21
1519.388757552422
 31
0.0
  0
LINE
  5
A009
  8
0
 10
1421.8512619912331
 20
1519.388757552422
 30
0.0
 11
1404.499999999998
 21
1536.590764302269
 31
0.0
  0
LINE
  5
A00A
  8
0
 10
1386.930939741063
 20
1519.388757552422
 30
0.0
 11
1404.5725994225349
 21
1502.1687193489561
 31
0.0
  0
LINE
  5
A00B
  8
0
 10
1404.499999999998
 20
1502.1687193489561
 30
0.0
 11
1421.8512619912331
 21
1519.388757552422
 31
0.0
  0
LINE
  5
A00C
  8
0
 10
1247.0725994225349
 20
1536.590764302269
 30
0.0
 11
1229.430939741062
 21
1519.388757552422
 31
0.0
  0
LINE
  5
A00D
  8
0
 10
1264.3512619912331
 20
1519.388757552422
 30
0.0
 11
1246.999999999998
 21
1536.590764302269
 31
0.0
  0
LINE
  5
A00E
  8
0
 10
1229.430939741062
 20
1519.388757552422
 30
0.0
 11
1247.0725994225349
 21
1502.1687193489561
 31
0.0
  0
LINE
  5
A00F
  8
0
 10
1246.999999999998
 20
1502.1687193489561
 30
0.0
 11
1264.3512619912331
 21
1519.388757552422
 31
0.0
  0
LINE
  5
A010
  8
0
 10
1562.0725994225349
 20
1536.590764302269
 30
0.0
 11
1544.430939741063
 21
1519.388757552422
 31
0.0
  0
LINE
  5
A011
  8
0
 10
1579.3512619912331
 20
1519.388757552422
 30
0.0
 11
1561.999999999998
 21
1536.590764302269
 31
0.0
  0
LINE
  5
A012
  8
0
 10
1544.430939741063
 20
1519.388757552422
 30
0.0
 11
1562.0725994225349
 21
1502.1687193489561
 31
0.0
  0
LINE
  5
A013
  8
0
 10
1561.999999999998
 20
1502.1687193489561
 30
0.0
 11
1579.3512619912331
 21
1519.388757552422
 31
0.0
  0
LINE
  5
A014
  8
0
 10
1719.5725994225349
 20
1536.590764302269
 30
0.0
 11
1737.214259104006
 21
1519.388757552422
 31
0.0
  0
LINE
  5
A015
  8
0
 10
1702.2939368538371
 20
1519.388757552422
 30
0.0
 11
1719.6451988450719
 21
1536.590764302269
 31
0.0
  0
LINE
  5
A016
  8
0
 10
1737.214259104006
 20
1519.388757552422
 30
0.0
 11
1719.5725994225349
 21
1502.1687193489561
 31
0.0
  0
LINE
  5
A017
  8
0
 10
1719.6451988450719
 20
1502.1687193489561
 30
0.0
 11
1702.2939368538371
 21
1519.388757552422
 31
0.0
  0
TEXT
  5
A048
  8
0
 10
4686.022727272727
 20
2073.3887575524218
 30
0.0
 40
40.0
  1
27.1V
  0
TEXT
  5
A049
  8
0
 10
4686.022727272727
 20
1973.388757552422
 30
0.0
 40
40.0
  1
8.86A
  0
TEXT
  5
A04A
  8
0
 10
4686.022727272727
 20
1873.388757552422
 30
0.0
 40
40.0
  1
32.3V
  0
TEXT
  5
A04B
  8
0
 10
4686.022727272727
 20
1773.388757552422
 30
0.0
 40
40.0
  1
9.3A
  0
TEXT
  5
A04C
  8
0
 10
4675.7954545454531
 20
1673.3887575524211
 30
0.0
 40
40.0
  1
1000V
  0
VIEWPORT
  5
2C13
 67
     1
  8
0
  6
CONTINUOUS
 10
321.5351258780272
 20
126.0104085977012
 30
0.0
 40
718.59439015214696
 41
270.55172600506432
 68
     1
 69
     1
1001
ACAD
1000
MVIEW
1002
{
1070
    16
1010
0.0
1020
0.0
1030
0.0
1010
0.0
1020
0.0
1030
1.0
1040
0.0
1040
270.55172600506432
1040
321.5351258780272
1040
126.0104085977012
1040
50.0
1040
0.0
1040
0.0
1070
     0
1070
   100
1070
     1
1070
     1
1070
     0
1070
     0
1070
     0
1070
     0
1040
0.0
1040
0.0
1040
0.0
1040
10.0
1040
10.0
1040
10.0
1040
10.0
1070
     0
1002
{
1002
}
1002
}
  0
VIEWPORT
  5
2C17
 67
     1
  8
0
  6
CONTINUOUS
 10
145.3303314447403
 20
101.8328338861465
 30
0.0
 40
232.5285303115844
 41
162.93253421783439
 68
     2
 69
     2
1001
ACAD
1000
MVIEW
1002
{
1070
    16
1010
0.0
1020
0.0
1030
0.0
1010
0.0
1020
0.0
1030
1.0
1040
0.0
1040
4242.2110552763806
1040
2970.0
1040
2100.0
1040
50.0
1040
0.0
1040
0.0
1070
     0
1070
   100
1070
     1
1070
     1
1070
     0
1070
     0
1070
     0
1070
     0
1040
0.0
1040
0.0
1040
0.0
1040
10.0
1040
10.0
1040
10.0
1040
10.0
1070
     0
1002
{
1002
}
1002
}
  0
ENDSEC
  0
EOF
