  0
SECTION
  2
HEADER
  9
$ACADVER
  1
AC1009
  9
$INSBASE
 10
0.0
 20
0.0
 30
0.0
  9
$EXTMIN
 10
0.0
 20
0.0
 30
0.0
  9
$EXTMAX
 10
5940.0
 20
4200.0
 30
0.0
  9
$LIMMIN
 10
109.65118815104159
 20
82.197222222222209
  9
$LIMMAX
 10
147.89037000868041
 20
96.502808973524296
  9
$ORTHOMODE
 70
     0
  9
$REGENMODE
 70
     1
  9
$FILLMODE
 70
     1
  9
$QTEXTMODE
 70
     0
  9
$MIRRTEXT
 70
     1
  9
$DRAGMODE
 70
     2
  9
$LTSCALE
 40
1.0
  9
$OSMODE
 70
   175
  9
$ATTMODE
 70
     1
  9
$TEXTSIZE
 40
0.0
  9
$TRACEWID
 40
0.05
  9
$TEXTSTYLE
  7
STANDARD
  9
$CLAYER
  8
0
  9
$CELTYPE
  6
BYLAYER
  9
$CECOLOR
 62
     4
  9
$DIMSCALE
 40
2.0
  9
$DIMASZ
 40
35.0
  9
$DIMEXO
 40
0.0625
  9
$DIMDLI
 40
10.0
  9
$DIMRND
 40
0.0
  9
$DIMDLE
 40
0.0
  9
$DIMEXE
 40
0.18
  9
$DIMTP
 40
0.0
  9
$DIMTM
 40
0.0
  9
$DIMTXT
 40
35.0
  9
$DIMCEN
 40
0.09
  9
$DIMTSZ
 40
0.0
  9
$DIMTOL
 70
     0
  9
$DIMLIM
 70
     0
  9
$DIMTIH
 70
     0
  9
$DIMTOH
 70
     0
  9
$DIMSE1
 70
     0
  9
$DIMSE2
 70
     0
  9
$DIMTAD
 70
     3
  9
$DIMZIN
 70
     0
  9
$DIMBLK
  1
OPEN
  9
$DIMASO
 70
     1
  9
$DIMSHO
 70
     1
  9
$DIMPOST
  1

  9
$DIMAPOST
  1

  9
$DIMALT
 70
     0
  9
$DIMALTD
 70
     2
  9
$DIMALTF
 40
25.399999999999999
  9
$DIMLFAC
 40
1.0
  9
$DIMTOFL
 70
     1
  9
$DIMTVP
 40
0.0
  9
$DIMTIX
 70
     0
  9
$DIMSOXD
 70
     0
  9
$DIMSAH
 70
     0
  9
$DIMBLK1
  1

  9
$DIMBLK2
  1

  9
$DIMSTYLE
  2
STANDARD
  9
$DIMCLRD
 70
     0
  9
$DIMCLRE
 70
     0
  9
$DIMCLRT
 70
     0
  9
$DIMTFAC
 40
1.0
  9
$DIMGAP
 40
10.0
  9
$LUNITS
 70
     2
  9
$LUPREC
 70
     4
  9
$SKETCHINC
 40
0.1
  9
$FILLETRAD
 40
100.0
  9
$AUNITS
 70
     0
  9
$AUPREC
 70
     0
  9
$MENU
  1
acad
  9
$ELEVATION
 40
0.0
  9
$PELEVATION
 40
0.0
  9
$THICKNESS
 40
0.0
  9
$LIMCHECK
 70
     0
  9
$BLIPMODE
 70
     0
  9
$CHAMFERA
 40
0.0
  9
$CHAMFERB
 40
0.0
  9
$SKPOLY
 70
     0
  9
$TDCREATE
 40
2456743.5973998029
  9
$TDUPDATE
 40
2457658.36762765
  9
$TDINDWG
 40
1.2957468634
  9
$TDUSRTIMER
 40
2456743.4630378941
  9
$USRTIMER
 70
     1
  9
$ANGBASE
 50
0.0
  9
$ANGDIR
 70
     0
  9
$PDMODE
 70
    35
  9
$PDSIZE
 40
0.0
  9
$PLINEWID
 40
0.0
  9
$COORDS
 70
     2
  9
$SPLFRAME
 70
     0
  9
$SPLINETYPE
 70
     6
  9
$SPLINESEGS
 70
     8
  9
$ATTDIA
 70
     0
  9
$ATTREQ
 70
     1
  9
$HANDLING
 70
     1
  9
$HANDSEED
  5
A660
  9
$SURFTAB1
 70
     6
  9
$SURFTAB2
 70
     6
  9
$SURFTYPE
 70
     6
  9
$SURFU
 70
     6
  9
$SURFV
 70
     6
  9
$UCSNAME
  2

  9
$UCSORG
 10
979.94756024367962
 20
-2980.9795932347261
 30
0.0
  9
$UCSXDIR
 10
1.0
 20
0.0
 30
0.0
  9
$UCSYDIR
 10
0.0
 20
1.0
 30
0.0
  9
$PUCSNAME
  2

  9
$PUCSORG
 10
0.0
 20
0.0
 30
0.0
  9
$PUCSXDIR
 10
1.0
 20
0.0
 30
0.0
  9
$PUCSYDIR
 10
0.0
 20
1.0
 30
0.0
  9
$USERI1
 70
     0
  9
$USERI2
 70
     0
  9
$USERI3
 70
     0
  9
$USERI4
 70
     0
  9
$USERI5
 70
     0
  9
$USERR1
 40
0.0
  9
$USERR2
 40
0.0
  9
$USERR3
 40
0.0
  9
$USERR4
 40
0.0
  9
$USERR5
 40
0.0
  9
$WORLDVIEW
 70
     1
  9
$SHADEDGE
 70
     3
  9
$SHADEDIF
 70
    70
  9
$TILEMODE
 70
     1
  9
$MAXACTVP
 70
    16
  9
$PLIMCHECK
 70
     0
  9
$PEXTMIN
 10
29.066066288948051
 20
20.366566777229309
 30
0.0
  9
$PEXTMAX
 10
261.5945966005325
 20
183.29910099506381
 30
0.0
  9
$PLIMMIN
 10
-3.17498779296875
 20
-3.1749999523162842
  9
$PLIMMAX
 10
293.83566284179687
 20
206.8406708240509
  9
$UNITMODE
 70
     0
  9
$VISRETAIN
 70
     0
  9
$PLINEGEN
 70
     1
  9
$PSLTSCALE
 70
     0
  0
ENDSEC
  0
SECTION
  2
TABLES
  0
TABLE
  2
VPORT
 70
     1
  0
VPORT
  2
*ACTIVE
 70
     0
 10
0.0
 20
0.0
 11
1.0
 21
1.0
 12
3228.5557102188441
 22
2076.3411359426818
 13
0.0
 23
0.0
 14
1.0
 24
1.0
 15
0.0
 25
0.0
 16
0.0
 26
0.0
 36
1.0
 17
0.0
 27
0.0
 37
0.0
 40
4237.1789826825743
 41
2.656033287101248
 42
50.0
 43
0.0
 44
0.0
 50
0.0
 51
0.0
 71
     0
 72
   100
 73
     1
 74
     1
 75
     0
 76
     0
 77
     0
 78
     0
  0
ENDTAB
  0
TABLE
  2
LTYPE
 70
     3
  0
LTYPE
  2
CONTINUOUS
 70
     0
  3
Solid line
 72
    65
 73
     0
 40
0.0
  0
LTYPE
  2
PHANTOM2
 70
     0
  3
___ _ _ ___ _ _ ___ _ _ ___ _ _
 72
    65
 73
     6
 40
1.25
 49
0.625
 49
-0.125
 49
0.125
 49
-0.125
 49
0.125
 49
-0.125
  0
ENDTAB
  0
TABLE
  2
LAYER
 70
     4
  0
LAYER
  2
0
 70
     0
 62
     7
  6
CONTINUOUS
  0
LAYER
  2
DEFPOINTS
 70
     0
 62
     7
  6
CONTINUOUS
  0
LAYER
  2
用紙枠
 70
     0
 62
     7
  6
CONTINUOUS
  0
LAYER
  2
図面枠
 70
     0
 62
     7
  6
CONTINUOUS
  0
ENDTAB
  0
TABLE
  2
STYLE
 70
     2
  0
STYLE
  2
STANDARD
 70
     0
 40
0.0
 41
1.0
 50
0.0
 71
     0
 42
0.0
  3
txt.shx
  4
bigfont.shx
  0
STYLE
  2
ANNOTATIVE
 70
     0
 40
0.0
 41
1.0
 50
0.0
 71
     0
 42
0.2
  3
txt
  4

  0
ENDTAB
  0
TABLE
  2
VIEW
 70
     0
  0
ENDTAB
  0
TABLE
  2
UCS
 70
     0
  0
ENDTAB
  0
TABLE
  2
APPID
 70
    20
  0
APPID
  2
ACAD
 70
     0
  0
APPID
  2
ACADANNOTATIVE
 70
     0
  0
APPID
  2
ACAD_EXEMPT_FROM_CAD_STANDARDS
 70
     0
  0
APPID
  2
ACAD_DSTYLE_DIMJAG
 70
     0
  0
APPID
  2
ACAD_DSTYLE_DIMTALN
 70
     0
  0
APPID
  2
ACAD_NAV_VCDISPLAY
 70
     0
  0
APPID
  2
ACAD_PSEXT
 70
     0
  0
APPID
  2
ACAECLAYERSTANDARD
 70
     0
  0
APPID
  2
ACCMTRANSPARENCY
 70
     0
  0
APPID
  2
ACADANNOAV
 70
     0
  0
APPID
  2
ACADANNOPO
 70
     0
  0
APPID
  2
ACAD_MLEADERVER
 70
     0
  0
APPID
  2
ACADSTRINGINFO
 70
     0
  0
APPID
  2
ACAD_DSTYLE_DIMBREAK
 70
     0
  0
APPID
  2
PLOTTRANSPARENCY
 70
     0
  0
APPID
  2
ACDBDYNAMICBLOCKGUID
 70
     0
  0
APPID
  2
ACAUTHENVIRON
 70
     0
  0
APPID
  2
ACLAYERTOOLS
 70
     0
  0
APPID
  2
ACDBDYNAMICBLOCKTRUENAME
 70
     0
  0
APPID
  2
ADESKUNDERLAYLAYEROVERRIDEDATA
 70
     0
  0
ENDTAB
  0
TABLE
  2
DIMSTYLE
 70
     2
  0
DIMSTYLE
  2
STANDARD
 70
     0
  3

  4

  5

  6

  7

 40
2.0
 41
35.0
 42
0.0625
 43
10.0
 44
0.18
 45
0.0
 46
0.0
 47
0.0
 48
0.0
140
35.0
141
0.09
142
0.0
143
25.399999999999999
144
1.0
145
0.0
146
1.0
147
10.0
 71
     0
 72
     0
 73
     0
 74
     0
 75
     0
 76
     0
 77
     3
 78
     0
170
     0
171
     2
172
     1
173
     0
174
     0
175
     0
176
     0
177
     0
178
     0
  0
DIMSTYLE
  2
ANNOTATIVE
 70
     0
  3

  4

  5

  6

  7

 40
1.0
 41
0.18
 42
0.0625
 43
0.38
 44
0.18
 45
0.0
 46
0.0
 47
0.0
 48
0.0
140
0.18
141
0.09
142
0.0
143
25.399999999999999
144
1.0
145
0.0
146
1.0
147
0.09
 71
     0
 72
     0
 73
     1
 74
     1
 75
     0
 76
     0
 77
     0
 78
     0
170
     0
171
     2
172
     0
173
     0
174
     0
175
     0
176
     0
177
     0
178
     0
  0
ENDTAB
  0
ENDSEC
  0
SECTION
  2
BLOCKS
  0
BLOCK
  8
0
  2
$MODEL_SPACE
 70
     0
 10
0.0
 20
0.0
 30
0.0
  3
$MODEL_SPACE
  1

  0
ENDBLK
  5
A5CA
  8
0
  0
BLOCK
 67
     1
  8
0
  2
$PAPER_SPACE
 70
     0
 10
0.0
 20
0.0
 30
0.0
  3
$PAPER_SPACE
  1

  0
ENDBLK
  5
A5C6
 67
     1
  8
0
  0
BLOCK
  8
0
  2
_OPEN
 70
     0
 10
0.0
 20
0.0
 30
0.0
  3
_OPEN
  1

  0
LINE
  5
AB0
  8
0
  6
BYBLOCK
 62
     0
 10
-1.0
 20
0.1666666666666666
 30
0.0
 11
0.0
 21
0.0
 31
0.0
  0
LINE
  5
AB1
  8
0
  6
BYBLOCK
 62
     0
 10
-1.0
 20
-0.1666666666666666
 30
0.0
 11
0.0
 21
0.0
 31
0.0
  0
LINE
  5
AB2
  8
0
  6
BYBLOCK
 62
     0
 10
0.0
 20
0.0
 30
0.0
 11
-1.0
 21
0.0
 31
0.0
  0
ENDBLK
  5
AB4
  8
0
  0
BLOCK
  8
0
  2
_CLOSED
 70
     0
 10
0.0
 20
0.0
 30
0.0
  3
_CLOSED
  1

  0
LINE
  5
AB6
  8
0
  6
BYBLOCK
 62
     0
 10
-1.0
 20
0.1666666666666666
 30
0.0
 11
0.0
 21
0.0
 31
0.0
  0
LINE
  5
AB7
  8
0
  6
BYBLOCK
 62
     0
 10
0.0
 20
0.0
 30
0.0
 11
-1.0
 21
-0.1666666666666666
 31
0.0
  0
LINE
  5
AB8
  8
0
  6
BYBLOCK
 62
     0
 10
-1.0
 20
0.1666666666666666
 30
0.0
 11
-1.0
 21
-0.1666666666666666
 31
0.0
  0
LINE
  5
AB9
  8
0
  6
BYBLOCK
 62
     0
 10
0.0
 20
0.0
 30
0.0
 11
-1.0
 21
0.0
 31
0.0
  0
ENDBLK
  5
ABB
  8
0
  0
BLOCK
  8
0
 62
     4
  2
*U4
 70
     1
 10
0.0
 20
0.0
 30
0.0
  3
*U4
  1

  0
TEXT
  5
A447
  8
0
 10
1481.07601458366
 20
2993.1662483906839
 30
0.0
 40
70.0
  1
992
  0
ENDBLK
  5
A449
  8
0
 62
     4
  0
BLOCK
  8
0
 62
     4
  2
*U5
 70
     1
 10
0.0
 20
0.0
 30
0.0
  3
*U5
  1

  0
TEXT
  5
A44B
  8
0
 10
2133.5
 20
1888.046301964868
 30
0.0
 40
70.0
  1
1650
 50
90.0
  0
ENDBLK
  5
A44D
  8
0
 62
     4
  0
BLOCK
  8
0
 62
     4
  2
*U6
 70
     1
 10
0.0
 20
0.0
 30
0.0
  3
*U6
  1

  0
TEXT
  5
A44F
  8
0
 10
2549.920454545454
 20
2993.1662483906839
 30
0.0
 40
70.0
  1
40
  0
ENDBLK
  5
A451
  8
0
 62
     4
  0
ENDSEC
  0
SECTION
  2
ENTITIES
  0
LINE
  5
9ED6
  8
0
 10
3655.0
 20
2543.3887575524232
 30
0.0
 11
3655.0
 21
2543.3887575524232
 31
0.0
  0
POLYLINE
  5
A063
  8
0
 66
     1
 10
0.0
 20
0.0
 30
0.0
  0
VERTEX
  5
A610
  8
0
 10
1557.63851458366
 20
1168.326199293673
 30
0.0
  0
VERTEX
  5
A611
  8
0
 10
1061.777029167321
 20
1168.326199293673
 30
0.0
  0
VERTEX
  5
A612
  8
0
 10
1061.777029167321
 20
2818.4513158111722
 30
0.0
  0
VERTEX
  5
A613
  8
0
 10
1557.6385145836559
 20
2818.4513158111722
 30
0.0
  0
SEQEND
  5
A614
  8
0
  0
POLYLINE
  5
A064
  8
0
 66
     1
 10
0.0
 20
0.0
 30
0.0
  0
VERTEX
  5
A615
  8
0
 10
1557.63851458366
 20
1177.3261992936721
 30
0.0
  0
VERTEX
  5
A616
  8
0
 10
1070.777029167321
 20
1177.3261992936721
 30
0.0
  0
VERTEX
  5
A617
  8
0
 10
1070.777029167321
 20
2809.4513158111722
 30
0.0
  0
VERTEX
  5
A618
  8
0
 10
1557.6385145836559
 20
2809.4513158111722
 30
0.0
  0
SEQEND
  5
A619
  8
0
  0
LINE
  5
A065
  8
0
 10
1070.777029167321
 20
2809.4513158111722
 30
0.0
 11
1061.777029167321
 21
2818.5618591817201
 31
0.0
  0
LINE
  5
A066
  8
0
 10
2044.4999999999991
 20
2809.4513158111722
 30
0.0
 11
2053.5
 21
2818.5618591817201
 31
0.0
  0
LINE
  5
A067
  8
0
 10
1070.777029167321
 20
1177.3261992936721
 30
0.0
 11
1061.777029167321
 21
1168.326199293673
 31
0.0
  0
LINE
  5
A069
  8
0
 10
1497.63851458366
 20
2779.4513158111731
 30
0.0
 11
1497.63851458366
 21
1197.326199293673
 31
0.0
  0
LINE
  5
A06A
  8
0
 10
1537.63851458366
 20
2779.4513158111731
 30
0.0
 11
1537.63851458366
 21
1197.326199293673
 31
0.0
  0
LINE
  5
A06B
  8
0
 10
1457.63851458366
 20
2779.4513158111731
 30
0.0
 11
1457.63851458366
 21
1197.326199293673
 31
0.0
  0
LINE
  5
A06C
  8
0
 10
1417.63851458366
 20
2779.4513158111731
 30
0.0
 11
1417.63851458366
 21
1189.326199293673
 31
0.0
  0
LINE
  5
A06D
  8
0
 10
1377.63851458366
 20
2779.4513158111731
 30
0.0
 11
1377.63851458366
 21
1197.326199293673
 31
0.0
  0
LINE
  5
A06E
  8
0
 10
1337.63851458366
 20
2779.4513158111731
 30
0.0
 11
1337.63851458366
 21
1197.326199293673
 31
0.0
  0
LINE
  5
A06F
  8
0
 10
1297.63851458366
 20
2779.4513158111731
 30
0.0
 11
1297.63851458366
 21
1197.326199293673
 31
0.0
  0
LINE
  5
A070
  8
0
 10
1297.63851458366
 20
2779.4513158111731
 30
0.0
 11
1297.63851458366
 21
1197.326199293673
 31
0.0
  0
LINE
  5
A071
  8
0
 10
1257.63851458366
 20
2779.4513158111731
 30
0.0
 11
1257.63851458366
 21
1197.326199293673
 31
0.0
  0
LINE
  5
A072
  8
0
 10
1217.63851458366
 20
2792.4513158111731
 30
0.0
 11
1217.63851458366
 21
1197.326199293673
 31
0.0
  0
LINE
  5
A073
  8
0
 10
1217.63851458366
 20
2792.4513158111731
 30
0.0
 11
1217.63851458366
 21
1197.326199293673
 31
0.0
  0
LINE
  5
A074
  8
0
 10
1177.63851458366
 20
2792.4513158111731
 30
0.0
 11
1177.63851458366
 21
1197.326199293673
 31
0.0
  0
LINE
  5
A075
  8
0
 10
1137.63851458366
 20
2792.4513158111731
 30
0.0
 11
1137.63851458366
 21
1197.326199293673
 31
0.0
  0
LINE
  5
A076
  8
0
 10
1070.777029167321
 20
2809.4513158111722
 30
0.0
 11
1557.63851458366
 21
2809.4513158111731
 31
0.0
  0
LINE
  5
A077
  8
0
 10
1082.777029167321
 20
2779.4513158111731
 30
0.0
 11
1557.63851458366
 21
2779.4513158111731
 31
0.0
  0
LINE
  5
A07B
  8
0
 10
1094.63851458366
 20
2799.4513158111722
 30
0.0
 11
1513.63851458366
 21
2799.4513158111722
 31
0.0
  0
LINE
  5
A07C
  8
0
 10
1094.63851458366
 20
2792.4513158111731
 30
0.0
 11
1513.63851458366
 21
2792.4513158111722
 31
0.0
  0
LINE
  5
A07D
  8
0
 10
1542.63851458366
 20
2789.9513158111731
 30
0.0
 11
1551.638514583653
 21
2789.9513158111731
 31
0.0
  0
LINE
  5
A07E
  8
0
 10
1555.88851458366
 20
2789.9513158111731
 30
0.0
 11
1557.6385145836559
 21
2789.9513158111731
 31
0.0
  0
LINE
  5
A07F
  8
0
 10
1094.63851458366
 20
2799.4513158111722
 30
0.0
 11
1094.63851458366
 21
2792.4513158111731
 31
0.0
  0
LINE
  5
A080
  8
0
 10
1097.63851458366
 20
2792.4513158111731
 30
0.0
 11
1097.63851458366
 21
1189.326199293673
 31
0.0
  0
LINE
  5
A081
  8
0
 10
1253.63851458366
 20
2792.4513158111731
 30
0.0
 11
1253.63851458366
 21
2779.4513158111731
 31
0.0
  0
LINE
  5
A082
  8
0
 10
1082.777029167321
 20
1197.326199293673
 30
0.0
 11
1082.777029167321
 21
2779.4513158111731
 31
0.0
  0
LINE
  5
A083
  8
0
 10
1239.38851458366
 20
1197.326199293673
 30
0.0
 11
1239.38851458366
 21
2779.4513158111731
 31
0.0
  0
LINE
  5
A084
  8
0
 10
1235.88851458366
 20
1197.326199293673
 30
0.0
 11
1235.88851458366
 21
2779.4513158111731
 31
0.0
  0
LINE
  5
A085
  8
0
 10
1399.38851458366
 20
1197.326199293673
 30
0.0
 11
1399.38851458366
 21
2779.4513158111731
 31
0.0
  0
LINE
  5
A086
  8
0
 10
1395.88851458366
 20
1197.326199293673
 30
0.0
 11
1395.88851458366
 21
2779.4513158111731
 31
0.0
  0
LINE
  5
A087
  8
0
 10
1555.88851458366
 20
1197.326199293673
 30
0.0
 11
1555.88851458366
 21
2789.9513158111731
 31
0.0
  0
LINE
  5
A088
  8
0
 10
1513.63851458366
 20
2805.4513158111722
 30
0.0
 11
1513.63851458366
 21
2792.4513158111722
 31
0.0
  0
LINE
  5
A089
  8
0
 10
1517.63851458366
 20
2802.4513158111722
 30
0.0
 11
1517.63851458366
 21
2789.9513158111731
 31
0.0
  0
LINE
  5
A08A
  8
0
 10
1070.777029167321
 20
2805.4513158111722
 30
0.0
 11
1557.63851458366
 21
2805.4513158111731
 31
0.0
  0
LINE
  5
A08B
  8
0
 10
1256.1385145836559
 20
2789.9513158111731
 30
0.0
 11
1517.63851458366
 21
2789.9513158111731
 31
0.0
  0
LINE
  5
A08C
  8
0
 10
1256.13851458366
 20
2781.9513158111722
 30
0.0
 11
1551.638514583653
 21
2781.9513158111722
 31
0.0
  0
LINE
  5
A08D
  8
0
 10
1256.1385145836559
 20
2789.9513158111731
 30
0.0
 11
1256.1385145836559
 21
2781.9513158111722
 31
0.0
  0
LINE
  5
A08E
  8
0
 10
1517.63851458366
 20
2802.4513158111722
 30
0.0
 11
1527.6385145836571
 21
2802.4513158111722
 31
0.0
  0
LINE
  5
A08F
  8
0
 10
1527.6385145836571
 20
2802.4513158111722
 30
0.0
 11
1527.6385145836571
 21
2795.4513158111731
 31
0.0
  0
LINE
  5
A090
  8
0
 10
1527.6385145836571
 20
2795.4513158111731
 30
0.0
 11
1542.6385145836559
 21
2795.4513158111731
 31
0.0
  0
LINE
  5
A091
  8
0
 10
1542.6385145836559
 20
2795.4513158111731
 30
0.0
 11
1542.63851458366
 21
2789.9513158111731
 31
0.0
  0
LINE
  5
A092
  8
0
 10
1551.638514583653
 20
2789.9513158111731
 30
0.0
 11
1551.638514583653
 21
2781.9513158111722
 31
0.0
  0
LINE
  5
A093
  8
0
 10
1557.638514583653
 20
1197.326199293673
 30
0.0
 11
1082.777029167321
 21
1197.326199293673
 31
0.0
  0
LINE
  5
A094
  8
0
 10
1557.638514583653
 20
1189.326199293673
 30
0.0
 11
1417.63851458366
 21
1189.326199293673
 31
0.0
  0
LINE
  5
A095
  8
0
 10
1383.63851458366
 20
1189.326199293673
 30
0.0
 11
1097.63851458366
 21
1189.326199293673
 31
0.0
  0
LINE
  5
A096
  8
0
 10
1383.63851458366
 20
1197.326199293673
 30
0.0
 11
1383.63851458366
 21
1189.326199293673
 31
0.0
  0
LINE
  5
A097
  8
0
 10
1082.777029167321
 20
2619.9888041594231
 30
0.0
 11
1555.88851458366
 21
2619.9888041594231
 31
0.0
  0
LINE
  5
A098
  8
0
 10
1082.777029167321
 20
2622.4888041594231
 30
0.0
 11
1555.88851458366
 21
2622.4888041594231
 31
0.0
  0
LINE
  5
A099
  8
0
 10
1082.777029167321
 20
2461.7762925076722
 30
0.0
 11
1555.88851458366
 21
2461.7762925076722
 31
0.0
  0
LINE
  5
A09A
  8
0
 10
1082.777029167321
 20
2464.2762925076731
 30
0.0
 11
1555.88851458366
 21
2464.2762925076731
 31
0.0
  0
LINE
  5
A09B
  8
0
 10
1082.777029167321
 20
2303.5637808559218
 30
0.0
 11
1555.88851458366
 21
2303.5637808559218
 31
0.0
  0
LINE
  5
A09C
  8
0
 10
1082.777029167321
 20
2306.0637808559218
 30
0.0
 11
1555.88851458366
 21
2306.0637808559218
 31
0.0
  0
LINE
  5
A09D
  8
0
 10
1082.777029167321
 20
2145.3512692041718
 30
0.0
 11
1555.88851458366
 21
2145.3512692041718
 31
0.0
  0
LINE
  5
A09E
  8
0
 10
1082.777029167321
 20
2147.8512692041718
 30
0.0
 11
1555.88851458366
 21
2147.8512692041718
 31
0.0
  0
LINE
  5
A09F
  8
0
 10
1082.777029167321
 20
1987.138757552422
 30
0.0
 11
1555.88851458366
 21
1987.138757552422
 31
0.0
  0
LINE
  5
A0A0
  8
0
 10
1082.777029167321
 20
1989.638757552422
 30
0.0
 11
1555.88851458366
 21
1989.638757552422
 31
0.0
  0
LINE
  5
A0A1
  8
0
 10
1082.777029167321
 20
1828.926245900672
 30
0.0
 11
1555.88851458366
 21
1828.926245900672
 31
0.0
  0
LINE
  5
A0A2
  8
0
 10
1082.777029167321
 20
1831.426245900672
 30
0.0
 11
1555.88851458366
 21
1831.426245900672
 31
0.0
  0
LINE
  5
A0A3
  8
0
 10
1082.777029167321
 20
1670.713734248922
 30
0.0
 11
1555.88851458366
 21
1670.713734248922
 31
0.0
  0
LINE
  5
A0A4
  8
0
 10
1082.777029167321
 20
1673.213734248922
 30
0.0
 11
1555.88851458366
 21
1673.213734248922
 31
0.0
  0
LINE
  5
A0A5
  8
0
 10
1082.777029167321
 20
1512.501222597172
 30
0.0
 11
1555.88851458366
 21
1512.501222597172
 31
0.0
  0
LINE
  5
A0A6
  8
0
 10
1082.777029167321
 20
1515.001222597172
 30
0.0
 11
1555.88851458366
 21
1515.001222597172
 31
0.0
  0
LINE
  5
A0A7
  8
0
 10
1082.777029167321
 20
1354.288710945423
 30
0.0
 11
1555.88851458366
 21
1354.288710945423
 31
0.0
  0
LINE
  5
A0A8
  8
0
 10
1082.777029167321
 20
1356.788710945423
 30
0.0
 11
1555.88851458366
 21
1356.788710945423
 31
0.0
  0
POLYLINE
  5
A0A9
  8
0
 66
     1
 10
0.0
 20
0.0
 30
0.0
  0
VERTEX
  5
A61A
  8
0
 10
1557.6385145829911
 20
1168.326199293673
 30
0.0
  0
VERTEX
  5
A61B
  8
0
 10
2053.4999999993288
 20
1168.326199293472
 30
0.0
  0
VERTEX
  5
A61C
  8
0
 10
2053.4999999999959
 20
2818.4513158109712
 30
0.0
  0
VERTEX
  5
A61D
  8
0
 10
1557.63851458366
 20
2818.4513158111722
 30
0.0
  0
SEQEND
  5
A61E
  8
0
  0
POLYLINE
  5
A0AA
  8
0
 66
     1
 10
0.0
 20
0.0
 30
0.0
  0
VERTEX
  5
A61F
  8
0
 10
1557.6385145829911
 20
1177.3261992936721
 30
0.0
  0
VERTEX
  5
A620
  8
0
 10
2044.4999999993299
 20
1177.3261992934761
 30
0.0
  0
VERTEX
  5
A621
  8
0
 10
2044.499999999992
 20
2809.4513158109748
 30
0.0
  0
VERTEX
  5
A622
  8
0
 10
1557.6385145836559
 20
2809.4513158111722
 30
0.0
  0
SEQEND
  5
A623
  8
0
  0
LINE
  5
A0AB
  8
0
 10
2044.499999999992
 20
2809.4513158109748
 30
0.0
 11
2053.4999999999959
 21
2818.5618591815191
 31
0.0
  0
LINE
  5
A0AC
  8
0
 10
2044.4999999993299
 20
1177.3261992934761
 30
0.0
 11
2053.4999999993288
 21
1168.326199293472
 31
0.0
  0
LINE
  5
A0AD
  8
0
 10
1617.638514583638
 20
2779.4513158111481
 30
0.0
 11
1617.638514583002
 21
1197.326199293648
 31
0.0
  0
LINE
  5
A0AE
  8
0
 10
1577.6385145836421
 20
2779.451315811164
 30
0.0
 11
1577.6385145829979
 21
1197.3261992936641
 31
0.0
  0
LINE
  5
A0AF
  8
0
 10
1657.638514583638
 20
2779.4513158111322
 30
0.0
 11
1657.6385145830011
 21
1197.326199293632
 31
0.0
  0
LINE
  5
A0B0
  8
0
 10
1697.6385145836421
 20
2779.4513158111158
 30
0.0
 11
1697.6385145829979
 21
1189.3261992936159
 31
0.0
  0
LINE
  5
A0B1
  8
0
 10
1737.638514583638
 20
2779.4513158110999
 30
0.0
 11
1737.638514583002
 21
1197.3261992936
 31
0.0
  0
LINE
  5
A0B2
  8
0
 10
1777.638514583638
 20
2779.4513158110831
 30
0.0
 11
1777.638514583002
 21
1197.3261992935841
 31
0.0
  0
LINE
  5
A0B3
  8
0
 10
1817.638514583638
 20
2779.4513158110672
 30
0.0
 11
1817.638514583002
 21
1197.326199293567
 31
0.0
  0
LINE
  5
A0B4
  8
0
 10
1817.638514583638
 20
2779.4513158110672
 30
0.0
 11
1817.638514583002
 21
1197.326199293567
 31
0.0
  0
LINE
  5
A0B5
  8
0
 10
1857.638514583638
 20
2779.4513158110508
 30
0.0
 11
1857.638514582997
 21
1197.3261992935511
 31
0.0
  0
LINE
  5
A0B6
  8
0
 10
1897.638514583645
 20
2792.4513158110358
 30
0.0
 11
1897.638514583002
 21
1197.326199293535
 31
0.0
  0
LINE
  5
A0B7
  8
0
 10
1897.638514583645
 20
2792.4513158110358
 30
0.0
 11
1897.638514583002
 21
1197.326199293535
 31
0.0
  0
LINE
  5
A0B8
  8
0
 10
1937.6385145836459
 20
2792.4513158110199
 30
0.0
 11
1937.6385145830011
 21
1197.326199293519
 31
0.0
  0
LINE
  5
A0B9
  8
0
 10
1977.638514583645
 20
2792.451315811003
 30
0.0
 11
1977.638514583002
 21
1197.3261992935029
 31
0.0
  0
LINE
  5
A0BA
  8
0
 10
2044.499999999992
 20
2809.4513158109748
 30
0.0
 11
1557.638514583653
 21
2809.4513158111731
 31
0.0
  0
LINE
  5
A0BB
  8
0
 10
2032.4999999999809
 20
2779.4513158109812
 30
0.0
 11
1557.6385145836421
 21
2779.4513158111731
 31
0.0
  0
LINE
  5
A0BC
  8
0
 10
2020.6385145836491
 20
2799.4513158109839
 30
0.0
 11
1601.638514583653
 21
2799.451315811154
 31
0.0
  0
LINE
  5
A0BD
  8
0
 10
2020.6385145836459
 20
2792.4513158109862
 30
0.0
 11
1601.6385145836459
 21
2792.451315811154
 31
0.0
  0
LINE
  5
A0BE
  8
0
 10
1572.6385145836459
 20
2789.9513158111681
 30
0.0
 11
1563.6385145836491
 21
2789.9513158111708
 31
0.0
  0
LINE
  5
A0BF
  8
0
 10
1559.3885145836459
 20
2789.9513158111731
 30
0.0
 11
1557.638514583645
 21
2789.9513158111731
 31
0.0
  0
LINE
  5
A0C0
  8
0
 10
2020.6385145836491
 20
2799.4513158109839
 30
0.0
 11
2020.6385145836459
 21
2792.4513158109862
 31
0.0
  0
LINE
  5
A0C1
  8
0
 10
2017.6385145836459
 20
2792.4513158109862
 30
0.0
 11
2017.6385145829979
 21
1189.3261992934861
 31
0.0
  0
LINE
  5
A0C2
  8
0
 10
1861.6385145836459
 20
2792.4513158110499
 30
0.0
 11
1861.6385145836421
 21
2779.4513158110499
 31
0.0
  0
LINE
  5
A0C3
  8
0
 10
2032.4999999993449
 20
1197.3261992934811
 30
0.0
 11
2032.4999999999809
 21
2779.4513158109812
 31
0.0
  0
LINE
  5
A0C4
  8
0
 10
1875.888514583005
 20
1197.3261992935441
 30
0.0
 11
1875.888514583638
 21
2779.451315811044
 31
0.0
  0
LINE
  5
A0C5
  8
0
 10
1879.388514583005
 20
1197.326199293542
 30
0.0
 11
1879.388514583638
 21
2779.4513158110431
 31
0.0
  0
LINE
  5
A0C6
  8
0
 10
1715.888514583002
 20
1197.3261992936079
 30
0.0
 11
1715.888514583638
 21
2779.4513158111081
 31
0.0
  0
LINE
  5
A0C7
  8
0
 10
1719.388514583002
 20
1197.326199293607
 30
0.0
 11
1719.388514583638
 21
2779.4513158111072
 31
0.0
  0
LINE
  5
A0C8
  8
0
 10
1559.388514583002
 20
1197.3261992936721
 30
0.0
 11
1559.3885145836459
 21
2789.9513158111731
 31
0.0
  0
LINE
  5
A0C9
  8
0
 10
1601.6385145836491
 20
2805.4513158111549
 30
0.0
 11
1601.6385145836459
 21
2792.451315811154
 31
0.0
  0
LINE
  5
A0CA
  8
0
 10
1597.638514583645
 20
2802.4513158111558
 30
0.0
 11
1597.638514583645
 21
2789.9513158111558
 31
0.0
  0
LINE
  5
A0CB
  8
0
 10
2044.499999999992
 20
2805.4513158109748
 30
0.0
 11
1557.638514583653
 21
2805.4513158111731
 31
0.0
  0
LINE
  5
A0CC
  8
0
 10
1859.1385145836459
 20
2789.9513158110499
 30
0.0
 11
1597.638514583645
 21
2789.9513158111558
 31
0.0
  0
LINE
  5
A0CD
  8
0
 10
1859.1385145836459
 20
2781.9513158110499
 30
0.0
 11
1563.6385145836459
 21
2781.9513158111699
 31
0.0
  0
LINE
  5
A0CE
  8
0
 10
1859.1385145836459
 20
2789.9513158110499
 30
0.0
 11
1859.1385145836459
 21
2781.9513158110499
 31
0.0
  0
LINE
  5
A0CF
  8
0
 10
1597.638514583645
 20
2802.4513158111558
 30
0.0
 11
1587.638514583653
 21
2802.4513158111599
 31
0.0
  0
LINE
  5
A0D0
  8
0
 10
1587.638514583653
 20
2802.4513158111599
 30
0.0
 11
1587.638514583653
 21
2795.4513158111608
 31
0.0
  0
LINE
  5
A0D1
  8
0
 10
1587.638514583653
 20
2795.4513158111608
 30
0.0
 11
1572.638514583653
 21
2795.4513158111658
 31
0.0
  0
LINE
  5
A0D2
  8
0
 10
1572.638514583653
 20
2795.4513158111658
 30
0.0
 11
1572.6385145836459
 21
2789.9513158111681
 31
0.0
  0
LINE
  5
A0D3
  8
0
 10
1563.6385145836491
 20
2789.9513158111708
 30
0.0
 11
1563.6385145836459
 21
2781.9513158111699
 31
0.0
  0
LINE
  5
A0D4
  8
0
 10
1557.638514583005
 20
1197.326199293673
 30
0.0
 11
2032.4999999993449
 21
1197.3261992934811
 31
0.0
  0
LINE
  5
A0D5
  8
0
 10
1557.638514583005
 20
1189.326199293673
 30
0.0
 11
1697.6385145829979
 21
1189.3261992936159
 31
0.0
  0
LINE
  5
A0D6
  8
0
 10
1731.6385145829979
 20
1189.326199293602
 30
0.0
 11
2017.6385145829979
 21
1189.3261992934861
 31
0.0
  0
LINE
  5
A0D7
  8
0
 10
1731.6385145829979
 20
1197.326199293602
 30
0.0
 11
1731.6385145829979
 21
1189.326199293602
 31
0.0
  0
LINE
  5
A0D8
  8
0
 10
2032.4999999999191
 20
2619.9888041592299
 30
0.0
 11
1559.388514583577
 21
2619.9888041594209
 31
0.0
  0
LINE
  5
A0D9
  8
0
 10
2032.4999999999191
 20
2622.4888041592299
 30
0.0
 11
1559.388514583577
 21
2622.4888041594209
 31
0.0
  0
LINE
  5
A0DA
  8
0
 10
2032.499999999854
 20
2461.7762925074799
 30
0.0
 11
1559.3885145835141
 21
2461.7762925076722
 31
0.0
  0
LINE
  5
A0DB
  8
0
 10
2032.499999999854
 20
2464.2762925074808
 30
0.0
 11
1559.3885145835141
 21
2464.2762925076709
 31
0.0
  0
LINE
  5
A0DC
  8
0
 10
2032.4999999997881
 20
2303.563780855729
 30
0.0
 11
1559.388514583449
 21
2303.5637808559209
 31
0.0
  0
LINE
  5
A0DD
  8
0
 10
2032.4999999997881
 20
2306.0637808557299
 30
0.0
 11
1559.388514583449
 21
2306.0637808559218
 31
0.0
  0
LINE
  5
A0DE
  8
0
 10
2032.4999999997231
 20
2145.3512692039808
 30
0.0
 11
1559.388514583384
 21
2145.3512692041709
 31
0.0
  0
LINE
  5
A0DF
  8
0
 10
2032.4999999997269
 20
2147.8512692039808
 30
0.0
 11
1559.388514583384
 21
2147.8512692041718
 31
0.0
  0
LINE
  5
A0E0
  8
0
 10
2032.499999999661
 20
1987.1387575522299
 30
0.0
 11
1559.3885145833181
 21
1987.138757552422
 31
0.0
  0
LINE
  5
A0E1
  8
0
 10
2032.4999999996639
 20
1989.6387575522299
 30
0.0
 11
1559.3885145833219
 21
1989.6387575524211
 31
0.0
  0
LINE
  5
A0E2
  8
0
 10
2032.4999999995989
 20
1828.9262459004799
 30
0.0
 11
1559.388514583256
 21
1828.926245900672
 31
0.0
  0
LINE
  5
A0E3
  8
0
 10
2032.4999999995989
 20
1831.4262459004799
 30
0.0
 11
1559.388514583256
 21
1831.426245900672
 31
0.0
  0
LINE
  5
A0E4
  8
0
 10
2032.499999999533
 20
1670.7137342487299
 30
0.0
 11
1559.3885145831939
 21
1670.7137342489209
 31
0.0
  0
LINE
  5
A0E5
  8
0
 10
2032.499999999533
 20
1673.2137342487299
 30
0.0
 11
1559.3885145831939
 21
1673.2137342489209
 31
0.0
  0
LINE
  5
A0E6
  8
0
 10
2032.4999999994679
 20
1512.5012225969799
 30
0.0
 11
1559.3885145831291
 21
1512.5012225971709
 31
0.0
  0
LINE
  5
A0E7
  8
0
 10
2032.4999999994679
 20
1515.0012225969799
 30
0.0
 11
1559.3885145831291
 21
1515.00122259717
 31
0.0
  0
LINE
  5
A0E8
  8
0
 10
2032.499999999402
 20
1354.2887109452311
 30
0.0
 11
1559.3885145830629
 21
1354.2887109454221
 31
0.0
  0
LINE
  5
A0E9
  8
0
 10
2032.4999999994061
 20
1356.7887109452311
 30
0.0
 11
1559.3885145830629
 21
1356.7887109454221
 31
0.0
  0
LINE
  5
A140
  8
用紙枠
 10
0.0
 20
0.0
 30
0.0
 11
5940.0
 21
0.0
 31
0.0
  0
LINE
  5
A141
  8
用紙枠
 10
5940.0
 20
0.0
 30
0.0
 11
5940.0
 21
4200.0
 31
0.0
  0
LINE
  5
A142
  8
用紙枠
 10
5940.0
 20
4200.0
 30
0.0
 11
0.0
 21
4200.0
 31
0.0
  0
LINE
  5
A143
  8
用紙枠
 10
0.0
 20
4200.0
 30
0.0
 11
0.0
 21
0.0
 31
0.0
  0
LINE
  5
A144
  8
図面枠
 10
5740.0
 20
200.0
 30
0.0
 11
5740.0
 21
4000.0
 31
0.0
  0
LINE
  5
A145
  8
図面枠
 10
5740.0
 20
4000.0
 30
0.0
 11
400.0
 21
4000.0
 31
0.0
  0
LINE
  5
A146
  8
図面枠
 10
400.0
 20
4000.0
 30
0.0
 11
400.0
 21
200.0
 31
0.0
  0
LINE
  5
A147
  8
図面枠
 10
400.0
 20
200.0
 30
0.0
 11
5740.0
 21
200.0
 31
0.0
  0
LINE
  5
A148
  8
図面枠
 10
5740.0
 20
3786.777515104845
 30
0.0
 11
400.0
 21
3786.777515104845
 31
0.0
  0
TEXT
  5
A149
  8
図面枠
 10
500.0
 20
3836.777515104845
 30
0.0
 40
100.0
  1
太陽電池モジュール　TGX-255PM-WHT-J
 11
500.0
 21
3886.777515104845
 31
0.0
 73
     2
  0
TEXT
  5
A14A
  8
0
 10
3658.0
 20
2271.9114848251511
 30
0.0
 40
40.0
  1
  型式
  0
TEXT
  5
A14B
  8
0
 10
4521.590909090909
 20
2273.3887575524218
 30
0.0
 40
40.0
  1
TGX-255PM-WHT-J
  0
TEXT
  5
A14C
  8
0
 10
3658.0
 20
2172.9342120978772
 30
0.0
 40
40.0
  1
  セル種類
  0
TEXT
  5
A14D
  8
0
 10
4543.0681818181802
 20
2172.3660302796952
 30
0.0
 40
40.0
  1
シリコン多結晶系
  0
TEXT
  5
A14E
  8
0
 10
3658.0
 20
2069.2018480058869
 30
0.0
 40
40.0
  1
  最大モジュール変換効率
  0
TEXT
  5
A14F
  8
0
 10
4688.75
 20
2070.3382116422508
 30
0.0
 40
40.0
  1
15.6%%%
  0
TEXT
  5
A150
  8
0
 10
3658.0
 20
1969.4291207331601
 30
0.0
 40
40.0
  1
  公称最大出力
  0
TEXT
  5
A151
  8
0
 10
4688.5227272727279
 20
1970.3382116422511
 30
0.0
 40
40.0
  1
255W
  0
TEXT
  5
A152
  8
0
 10
3658.0
 20
1872.593303006968
 30
0.0
 40
40.0
  1
  公称最大出力動作電圧
  0
TEXT
  5
A153
  8
0
 10
4686.022727272727
 20
1873.388757552422
 30
0.0
 40
40.0
  1
30.1V
  0
TEXT
  5
A154
  8
0
 10
3658.0
 20
1772.593303006968
 30
0.0
 40
40.0
  1
  公称最大出力動作電流
  0
TEXT
  5
A155
  8
0
 10
4686.022727272727
 20
1773.388757552422
 30
0.0
 40
40.0
  1
8.46A
  0
TEXT
  5
A156
  8
0
 10
3658.0
 20
1672.479666643331
 30
0.0
 40
40.0
  1
  公称開放電圧
  0
TEXT
  5
A157
  8
0
 10
4686.022727272727
 20
1673.3887575524211
 30
0.0
 40
40.0
  1
37.2V
  0
TEXT
  5
A158
  8
0
 10
3658.0
 20
1572.2523939160581
 30
0.0
 40
40.0
  1
  公称短絡電流
  0
TEXT
  5
A159
  8
0
 10
4686.022727272727
 20
1573.388757552422
 30
0.0
 40
40.0
  1
9.0A
  0
TEXT
  5
A15A
  8
0
 10
3658.0
 20
1472.934212097877
 30
0.0
 40
40.0
  1
  最大システム電圧
  0
TEXT
  5
A15B
  8
0
 10
4675.7954545454531
 20
1473.388757552422
 30
0.0
 40
40.0
  1
1000V
  0
TEXT
  5
A15C
  8
0
 10
3658.0
 20
1373.047848461513
 30
0.0
 40
40.0
  1
  外形寸法（WxHxD）
  0
TEXT
  5
A15D
  8
0
 10
4547.2727272727261
 20
1376.116030279695
 30
0.0
 40
40.0
  1
1,650x992x40mm
  0
TEXT
  5
A15E
  8
0
 10
3658.0
 20
1273.047848461513
 30
0.0
 40
40.0
  1
  質量
  0
TEXT
  5
A15F
  8
0
 10
4674.659090909091
 20
1273.729666643331
 30
0.0
 40
40.0
  1
18.5kg
  0
LINE
  5
A160
  8
0
 10
3655.0
 20
2343.3887575524232
 30
0.0
 11
5155.0
 21
2343.3887575524232
 31
0.0
  0
LINE
  5
A161
  8
0
 10
3655.0
 20
2243.3887575524218
 30
0.0
 11
5155.0
 21
2243.3887575524218
 31
0.0
  0
LINE
  5
A162
  8
0
 10
3655.0
 20
2143.3887575524218
 30
0.0
 11
5155.0
 21
2143.3887575524218
 31
0.0
  0
LINE
  5
A164
  8
0
 10
3655.0
 20
1943.388757552422
 30
0.0
 11
5155.0
 21
1943.388757552422
 31
0.0
  0
LINE
  5
A165
  8
0
 10
3655.0
 20
1843.38875755242
 30
0.0
 11
5155.0
 21
1843.38875755242
 31
0.0
  0
LINE
  5
A166
  8
0
 10
3655.0
 20
1743.388757552422
 30
0.0
 11
5155.0
 21
1743.388757552422
 31
0.0
  0
LINE
  5
A167
  8
0
 10
3655.0
 20
1643.3887575524211
 30
0.0
 11
5155.0
 21
1643.3887575524211
 31
0.0
  0
LINE
  5
A168
  8
0
 10
3655.0
 20
1543.388757552422
 30
0.0
 11
5155.0
 21
1543.388757552422
 31
0.0
  0
LINE
  5
A169
  8
0
 10
3655.0
 20
1443.388757552422
 30
0.0
 11
5155.0
 21
1443.388757552422
 31
0.0
  0
LINE
  5
A16A
  8
0
 10
3655.0
 20
1343.388757552422
 30
0.0
 11
5155.0
 21
1343.388757552422
 31
0.0
  0
LINE
  5
A16B
  8
0
 10
3655.0
 20
1243.388757552422
 30
0.0
 11
5155.0
 21
1243.388757552422
 31
0.0
  0
LINE
  5
A16D
  8
0
 10
4355.0
 20
2343.3887575524232
 30
0.0
 11
4355.0
 21
1243.388757552422
 31
0.0
  0
LINE
  5
A1BE
  8
0
 10
2353.5
 20
1168.326199293472
 30
0.0
 11
2393.5
 21
1168.326199293472
 31
0.0
  0
LINE
  5
A1BF
  8
0
 10
2393.5
 20
1168.326199293472
 30
0.0
 11
2393.5
 21
2818.5618591817201
 31
0.0
  0
LINE
  5
A1C0
  8
0
 10
2393.5
 20
2818.5618591817201
 30
0.0
 11
2353.5
 21
2818.5618591817201
 31
0.0
  0
LINE
  5
A1C1
  8
0
 10
2353.5
 20
2818.5618591817201
 30
0.0
 11
2353.5
 21
1168.326199293472
 31
0.0
  0
LINE
  5
A1DB
  8
0
 10
2283.5
 20
2973.1662483906848
 30
0.0
 11
2213.5
 21
2973.1662483906848
 31
0.0
  0
LINE
  5
A1DC
  8
0
 10
2463.5
 20
2973.1662483906848
 30
0.0
 11
2666.170454545454
 21
2973.1662483906848
 31
0.0
  0
LINE
  5
A1DD
  8
0
 10
2353.5
 20
2973.1662483906848
 30
0.0
 11
2393.5
 21
2973.1662483906848
 31
0.0
  0
LINE
  5
A1DE
  8
0
 10
2283.5
 20
2984.8329150573509
 30
0.0
 11
2353.5
 21
2973.1662483906848
 31
0.0
  0
LINE
  5
A1DF
  8
0
 10
2283.5
 20
2961.4995817240178
 30
0.0
 11
2353.5
 21
2973.1662483906848
 31
0.0
  0
LINE
  5
A1E0
  8
0
 10
2353.5
 20
2973.1662483906848
 30
0.0
 11
2283.5
 21
2973.1662483906848
 31
0.0
  0
LINE
  5
A1E1
  8
0
 10
2463.5
 20
2961.4995817240178
 30
0.0
 11
2393.5
 21
2973.1662483906848
 31
0.0
  0
LINE
  5
A1E2
  8
0
 10
2463.5
 20
2984.8329150573509
 30
0.0
 11
2393.5
 21
2973.1662483906848
 31
0.0
  0
LINE
  5
A1E3
  8
0
 10
2393.5
 20
2973.1662483906848
 30
0.0
 11
2463.5
 21
2973.1662483906848
 31
0.0
  0
LINE
  5
A1E6
  8
0
 10
2153.5
 20
2725.801553786202
 30
0.0
 11
2153.5
 21
1547.801553786202
 31
0.0
  0
LINE
  5
A21B
  8
0
 10
2383.5
 20
1168.326199293472
 30
0.0
 11
2383.5
 21
2818.5618591817201
 31
0.0
  0
LINE
  5
A21C
  8
0
 10
2373.5
 20
1168.326199293472
 30
0.0
 11
2373.5
 21
2818.5618591817201
 31
0.0
  0
LINE
  5
A21D
  8
0
 10
2363.5
 20
1168.326199293472
 30
0.0
 11
2363.5
 21
2818.5618591817201
 31
0.0
  0
LINE
  5
A243
  8
0
 10
3655.0
 20
1343.388757552422
 30
0.0
 11
5155.0
 21
1343.388757552422
 31
0.0
  0
LINE
  5
A244
  8
0
 10
3655.0
 20
1243.388757552422
 30
0.0
 11
5155.0
 21
1243.388757552422
 31
0.0
  0
LINE
  5
A24C
  8
0
 10
3655.0
 20
2343.3887575524232
 30
0.0
 11
3655.0
 21
1243.388757552422
 31
0.0
  0
LINE
  5
A24D
  8
0
 10
5155.0
 20
2343.3887575524232
 30
0.0
 11
5155.0
 21
1243.388757552422
 31
0.0
  0
LINE
  5
A24F
  8
0
 10
3655.0
 20
2043.388757552422
 30
0.0
 11
5155.0
 21
2043.388757552422
 31
0.0
  0
LINE
  5
A2C3
  8
0
 10
1061.777029167321
 20
2818.5618591817201
 30
0.0
 11
1061.777029167321
 21
2973.526248390684
 31
0.0
  0
LINE
  5
A2C4
  8
0
 10
2053.5
 20
2818.5618591817201
 30
0.0
 11
2053.5
 21
2973.526248390684
 31
0.0
  0
LINE
  5
A2C5
  8
0
 10
1131.777029167321
 20
2973.1662483906848
 30
0.0
 11
1983.4999999999991
 21
2973.1662483906848
 31
0.0
  0
INSERT
  5
A2C6
  8
0
  2
_OPEN
 10
1061.777029167321
 20
2973.1662483906848
 30
0.0
 41
70.0
 42
70.0
 43
70.0
 50
180.0
  0
INSERT
  5
A2C7
  8
0
  2
_OPEN
 10
2053.5
 20
2973.1662483906848
 30
0.0
 41
70.0
 42
70.0
 43
70.0
  0
INSERT
  5
A2C8
  8
0
 62
     4
  2
*U4
 10
0.0
 20
0.0
 30
0.0
  0
LINE
  5
A2C9
  8
0
 10
2053.625
 20
2818.5618591817201
 30
0.0
 11
2153.8600000000001
 21
2818.5618591817201
 31
0.0
  0
LINE
  5
A2CA
  8
0
 10
2053.624999999332
 20
1168.326199293472
 30
0.0
 11
2153.8599999999992
 21
1168.326199293472
 31
0.0
  0
LINE
  5
A2CB
  8
0
 10
2153.5
 20
2748.5618591817201
 30
0.0
 11
2153.5
 21
1238.326199293472
 31
0.0
  0
INSERT
  5
A2CC
  8
0
  2
_OPEN
 10
2153.5
 20
2818.5618591817201
 30
0.0
 41
70.0
 42
70.0
 43
70.0
 50
90.0
  0
INSERT
  5
A2CD
  8
0
  2
_OPEN
 10
2153.5
 20
1168.326199293472
 30
0.0
 41
70.0
 42
70.0
 43
70.0
 50
270.0
  0
INSERT
  5
A2CE
  8
0
 62
     4
  2
*U5
 10
0.0
 20
0.0
 30
0.0
  0
LINE
  5
A2CF
  8
0
 10
2393.5
 20
2818.6868591817201
 30
0.0
 11
2393.5
 21
2973.526248390684
 31
0.0
  0
LINE
  5
A2D0
  8
0
 10
2353.5
 20
2818.6868591817201
 30
0.0
 11
2353.5
 21
2973.526248390684
 31
0.0
  0
LINE
  5
A2D1
  8
0
 10
2283.5
 20
2973.1662483906848
 30
0.0
 11
2213.5
 21
2973.1662483906848
 31
0.0
  0
LINE
  5
A2D2
  8
0
 10
2463.5
 20
2973.1662483906848
 30
0.0
 11
2668.159090909091
 21
2973.1662483906848
 31
0.0
  0
LINE
  5
A2D3
  8
0
 10
2353.5
 20
2973.1662483906848
 30
0.0
 11
2393.5
 21
2973.1662483906848
 31
0.0
  0
INSERT
  5
A2D4
  8
0
  2
_OPEN
 10
2353.5
 20
2973.1662483906848
 30
0.0
 41
70.0
 42
70.0
 43
70.0
  0
INSERT
  5
A2D5
  8
0
  2
_OPEN
 10
2393.5
 20
2973.1662483906848
 30
0.0
 41
70.0
 42
70.0
 43
70.0
 50
180.0
  0
INSERT
  5
A2D6
  8
0
 62
     4
  2
*U6
 10
0.0
 20
0.0
 30
0.0
  0
VIEWPORT
  5
2C13
 67
     1
  8
0
  6
CONTINUOUS
 10
321.5351258780272
 20
126.0104085977012
 30
0.0
 40
718.59439015214696
 41
270.55172600506432
 68
     1
 69
     1
1001
ACAD
1000
MVIEW
1002
{
1070
    16
1010
0.0
1020
0.0
1030
0.0
1010
0.0
1020
0.0
1030
1.0
1040
0.0
1040
270.55172600506432
1040
321.5351258780272
1040
126.0104085977012
1040
50.0
1040
0.0
1040
0.0
1070
     0
1070
   100
1070
     1
1070
     1
1070
     0
1070
     0
1070
     0
1070
     0
1040
0.0
1040
0.0
1040
0.0
1040
10.0
1040
10.0
1040
10.0
1040
10.0
1070
     0
1002
{
1002
}
1002
}
  0
VIEWPORT
  5
2C17
 67
     1
  8
0
  6
CONTINUOUS
 10
145.3303314447403
 20
101.8328338861465
 30
0.0
 40
232.5285303115844
 41
162.93253421783439
 68
     2
 69
     2
1001
ACAD
1000
MVIEW
1002
{
1070
    16
1010
0.0
1020
0.0
1030
0.0
1010
0.0
1020
0.0
1030
1.0
1040
0.0
1040
4242.2110552763806
1040
2970.0
1040
2100.0
1040
50.0
1040
0.0
1040
0.0
1070
     0
1070
   100
1070
     1
1070
     1
1070
     0
1070
     0
1070
     0
1070
     0
1040
0.0
1040
0.0
1040
0.0
1040
10.0
1040
10.0
1040
10.0
1040
10.0
1070
     0
1002
{
1002
}
1002
}
  0
ENDSEC
  0
EOF
