  0
SECTION
  2
HEADER
  9
$ACADVER
  1
AC1015
  9
$ACADMAINTVER
 70
    20
  9
$DWGCODEPAGE
  3
ANSI_932
  9
$INSBASE
 10
0.0
 20
0.0
 30
0.0
  9
$EXTMIN
 10
0.0
 20
0.0
 30
0.0
  9
$EXTMAX
 10
5940.0
 20
4200.0
 30
0.0
  9
$LIMMIN
 10
109.6511881510416
 20
82.19722222222221
  9
$LIMMAX
 10
147.8903700086805
 20
96.5028089735243
  9
$ORTHOMODE
 70
     1
  9
$REGENMODE
 70
     1
  9
$FILLMODE
 70
     1
  9
$QTEXTMODE
 70
     0
  9
$MIRRTEXT
 70
     1
  9
$LTSCALE
 40
1.0
  9
$ATTMODE
 70
     1
  9
$TEXTSIZE
 40
0.0
  9
$TRACEWID
 40
0.05
  9
$TEXTSTYLE
  7
Standard
  9
$CLAYER
  8
0
  9
$CELTYPE
  6
ByLayer
  9
$CECOLOR
 62
   256
  9
$CELTSCALE
 40
1.0
  9
$DISPSILH
 70
     0
  9
$DIMSCALE
 40
2.0
  9
$DIMASZ
 40
35.0
  9
$DIMEXO
 40
0.0625
  9
$DIMDLI
 40
10.0
  9
$DIMRND
 40
0.0
  9
$DIMDLE
 40
0.0
  9
$DIMEXE
 40
0.18
  9
$DIMTP
 40
0.0
  9
$DIMTM
 40
0.0
  9
$DIMTXT
 40
35.0
  9
$DIMCEN
 40
0.09
  9
$DIMTSZ
 40
0.0
  9
$DIMTOL
 70
     0
  9
$DIMLIM
 70
     0
  9
$DIMTIH
 70
     0
  9
$DIMTOH
 70
     0
  9
$DIMSE1
 70
     0
  9
$DIMSE2
 70
     0
  9
$DIMTAD
 70
     3
  9
$DIMZIN
 70
     0
  9
$DIMBLK
  1
Open
  9
$DIMASO
 70
     1
  9
$DIMSHO
 70
     1
  9
$DIMPOST
  1

  9
$DIMAPOST
  1

  9
$DIMALT
 70
     0
  9
$DIMALTD
 70
     2
  9
$DIMALTF
 40
25.4
  9
$DIMLFAC
 40
1.0
  9
$DIMTOFL
 70
     1
  9
$DIMTVP
 40
0.0
  9
$DIMTIX
 70
     0
  9
$DIMSOXD
 70
     0
  9
$DIMSAH
 70
     0
  9
$DIMBLK1
  1

  9
$DIMBLK2
  1

  9
$DIMSTYLE
  2
Standard
  9
$DIMCLRD
 70
     0
  9
$DIMCLRE
 70
     0
  9
$DIMCLRT
 70
     0
  9
$DIMTFAC
 40
1.0
  9
$DIMGAP
 40
10.0
  9
$DIMJUST
 70
     0
  9
$DIMSD1
 70
     0
  9
$DIMSD2
 70
     0
  9
$DIMTOLJ
 70
     1
  9
$DIMTZIN
 70
     0
  9
$DIMALTZ
 70
     0
  9
$DIMALTTZ
 70
     0
  9
$DIMUPT
 70
     0
  9
$DIMDEC
 70
     0
  9
$DIMTDEC
 70
     0
  9
$DIMALTU
 70
     2
  9
$DIMALTTD
 70
     2
  9
$DIMTXSTY
  7
Standard
  9
$DIMAUNIT
 70
     0
  9
$DIMADEC
 70
     4
  9
$DIMALTRND
 40
0.0
  9
$DIMAZIN
 70
     0
  9
$DIMDSEP
 70
    46
  9
$DIMATFIT
 70
     3
  9
$DIMFRAC
 70
     0
  9
$DIMLDRBLK
  1
Closed
  9
$DIMLUNIT
 70
     2
  9
$DIMLWD
 70
    -2
  9
$DIMLWE
 70
     0
  9
$DIMTMOVE
 70
     0
  9
$LUNITS
 70
     2
  9
$LUPREC
 70
     4
  9
$SKETCHINC
 40
0.1
  9
$FILLETRAD
 40
100.0
  9
$AUNITS
 70
     0
  9
$AUPREC
 70
     0
  9
$MENU
  1
acad
  9
$ELEVATION
 40
0.0
  9
$PELEVATION
 40
0.0
  9
$THICKNESS
 40
0.0
  9
$LIMCHECK
 70
     0
  9
$CHAMFERA
 40
0.0
  9
$CHAMFERB
 40
0.0
  9
$CHAMFERC
 40
0.0
  9
$CHAMFERD
 40
0.0
  9
$SKPOLY
 70
     0
  9
$TDCREATE
 40
2456743.597399803
  9
$TDUCREATE
 40
2456743.222399803
  9
$TDUPDATE
 40
2458326.597879873
  9
$TDUUPDATE
 40
2458326.222879873
  9
$TDINDWG
 40
0.8320245023
  9
$TDUSRTIMER
 40
2456742.999313183
  9
$USRTIMER
 70
     1
  9
$ANGBASE
 50
0.0
  9
$ANGDIR
 70
     0
  9
$PDMODE
 70
     1
  9
$PDSIZE
 40
0.0
  9
$PLINEWID
 40
0.0
  9
$SPLFRAME
 70
     0
  9
$SPLINETYPE
 70
     6
  9
$SPLINESEGS
 70
     8
  9
$HANDSEED
  5
85ED
  9
$SURFTAB1
 70
     6
  9
$SURFTAB2
 70
     6
  9
$SURFTYPE
 70
     6
  9
$SURFU
 70
     6
  9
$SURFV
 70
     6
  9
$UCSBASE
  2

  9
$UCSNAME
  2

  9
$UCSORG
 10
0.0
 20
0.0
 30
0.0
  9
$UCSXDIR
 10
1.0
 20
0.0
 30
0.0
  9
$UCSYDIR
 10
0.0
 20
1.0
 30
0.0
  9
$UCSORTHOREF
  2

  9
$UCSORTHOVIEW
 70
     0
  9
$UCSORGTOP
 10
0.0
 20
0.0
 30
0.0
  9
$UCSORGBOTTOM
 10
0.0
 20
0.0
 30
0.0
  9
$UCSORGLEFT
 10
0.0
 20
0.0
 30
0.0
  9
$UCSORGRIGHT
 10
0.0
 20
0.0
 30
0.0
  9
$UCSORGFRONT
 10
0.0
 20
0.0
 30
0.0
  9
$UCSORGBACK
 10
0.0
 20
0.0
 30
0.0
  9
$PUCSBASE
  2

  9
$PUCSNAME
  2

  9
$PUCSORG
 10
0.0
 20
0.0
 30
0.0
  9
$PUCSXDIR
 10
1.0
 20
0.0
 30
0.0
  9
$PUCSYDIR
 10
0.0
 20
1.0
 30
0.0
  9
$PUCSORTHOREF
  2

  9
$PUCSORTHOVIEW
 70
     0
  9
$PUCSORGTOP
 10
0.0
 20
0.0
 30
0.0
  9
$PUCSORGBOTTOM
 10
0.0
 20
0.0
 30
0.0
  9
$PUCSORGLEFT
 10
0.0
 20
0.0
 30
0.0
  9
$PUCSORGRIGHT
 10
0.0
 20
0.0
 30
0.0
  9
$PUCSORGFRONT
 10
0.0
 20
0.0
 30
0.0
  9
$PUCSORGBACK
 10
0.0
 20
0.0
 30
0.0
  9
$USERI1
 70
     0
  9
$USERI2
 70
     0
  9
$USERI3
 70
     0
  9
$USERI4
 70
     0
  9
$USERI5
 70
     0
  9
$USERR1
 40
0.0
  9
$USERR2
 40
0.0
  9
$USERR3
 40
0.0
  9
$USERR4
 40
0.0
  9
$USERR5
 40
0.0
  9
$WORLDVIEW
 70
     1
  9
$SHADEDGE
 70
     3
  9
$SHADEDIF
 70
    70
  9
$TILEMODE
 70
     1
  9
$MAXACTVP
 70
    16
  9
$PINSBASE
 10
0.0
 20
0.0
 30
0.0
  9
$PLIMCHECK
 70
     0
  9
$PEXTMIN
 10
29.06606628894805
 20
20.36656677722931
 30
0.0
  9
$PEXTMAX
 10
261.5945966005325
 20
183.2991009950638
 30
0.0
  9
$PLIMMIN
 10
-3.17498779296875
 20
-3.174999952316283
  9
$PLIMMAX
 10
293.8356628417969
 20
206.8406708240509
  9
$UNITMODE
 70
     0
  9
$VISRETAIN
 70
     0
  9
$PLINEGEN
 70
     1
  9
$PSLTSCALE
 70
     0
  9
$TREEDEPTH
 70
  3020
  9
$CMLSTYLE
  2
Standard
  9
$CMLJUST
 70
     0
  9
$CMLSCALE
 40
1.0
  9
$PROXYGRAPHICS
 70
     0
  9
$MEASUREMENT
 70
     1
  9
$CELWEIGHT
370
    -1
  9
$ENDCAPS
280
     0
  9
$JOINSTYLE
280
     0
  9
$LWDISPLAY
290
     1
  9
$INSUNITS
 70
     0
  9
$HYPERLINKBASE
  1

  9
$STYLESHEET
  1
MONOCHROME.CTB
  9
$XEDIT
290
     1
  9
$CEPSNTYPE
380
     0
  9
$PSTYLEMODE
290
     1
  9
$FINGERPRINTGUID
  2

  9
$VERSIONGUID
  2
{06D94B67-A740-4F2B-AD55-137EAB52BD67}
  9
$EXTNAMES
290
     1
  9
$PSVPSCALE
 40
0.0
  9
$OLESTARTUP
290
     0
  0
ENDSEC
  0
SECTION
  2
CLASSES
  0
CLASS
  1
IMAGE
  2
AcDbRasterImage
  3
ISM
 90
    34943
280
     0
281
     1
  0
CLASS
  1
DICTIONARYVAR
  2
AcDbDictionaryVar
  3
ObjectDBX Classes
 90
        0
280
     0
281
     0
  0
CLASS
  1
RASTERVARIABLES
  2
AcDbRasterVariables
  3
ISM
 90
        0
280
     0
281
     0
  0
CLASS
  1
IMAGEDEF
  2
AcDbRasterImageDef
  3
ISM
 90
    32768
280
     0
281
     0
  0
CLASS
  1
IMAGEDEF_REACTOR
  2
AcDbRasterImageDefReactor
  3
ISM
 90
    32769
280
     0
281
     0
  0
CLASS
  1
IDBUFFER
  2
AcDbIdBuffer
  3
ObjectDBX Classes
 90
    32768
280
     0
281
     0
  0
CLASS
  1
SPATIAL_FILTER
  2
AcDbSpatialFilter
  3
ObjectDBX Classes
 90
    32768
280
     0
281
     0
  0
CLASS
  1
SORTENTSTABLE
  2
AcDbSortentsTable
  3
ObjectDBX Classes
 90
        0
280
     0
281
     0
  0
CLASS
  1
LAYER_INDEX
  2
AcDbLayerIndex
  3
ObjectDBX Classes
 90
    32768
280
     0
281
     0
  0
CLASS
  1
SPATIAL_INDEX
  2
AcDbSpatialIndex
  3
ObjectDBX Classes
 90
    32768
280
     0
281
     0
  0
CLASS
  1
OBJECT_PTR
  2
CAseDLPNTableRecord
  3
ASE-LPNTableRecord
 90
    32769
280
     0
281
     0
  0
CLASS
  1
LAYOUT
  2
AcDbLayout
  3
ObjectDBX Classes
 90
        0
280
     0
281
     0
  0
CLASS
  1
PLOTSETTINGS
  2
AcDbPlotSettings
  3
ObjectDBX Classes
 90
        0
280
     0
281
     0
  0
CLASS
  1
ACDBDICTIONARYWDFLT
  2
AcDbDictionaryWithDefault
  3
ObjectDBX Classes
 90
        0
280
     0
281
     0
  0
CLASS
  1
ACDBPLACEHOLDER
  2
AcDbPlaceHolder
  3
ObjectDBX Classes
 90
        0
280
     0
281
     0
  0
CLASS
  1
VBA_PROJECT
  2
AcDbVbaProject
  3
acad
 90
    32768
280
     0
281
     0
  0
CLASS
  1
WIPEOUT
  2
AcDbWipeout
  3
WipeOut|Product Desc: Object Enabler for WipeOut entity | Company: Autodesk, Inc. | WEB Address: www.autodesk.com
 90
    34943
280
     0
281
     1
  0
CLASS
  1
WIPEOUTVARIABLES
  2
AcDbWipeoutVariables
  3
"WipeOut|Product Desc:     WipeOut Dbx Application|Company:          Autodesk, Inc.|WEB Address:      www.autodesk.com"
 90
        0
280
     0
281
     0
  0
CLASS
  1
RTEXT
  2
RText
  3
RText|AutoCAD Express Tool|expresstools@autodesk.com
 90
    32768
280
     0
281
     1
  0
CLASS
  1
ARCALIGNEDTEXT
  2
AcDbArcAlignedText
  3
ATEXT|AutoCAD Express Tool|expresstools@autodesk.com
 90
    32768
280
     0
281
     1
  0
CLASS
  1
VISUALSTYLE
  2
AcDbVisualStyle
  3
ObjectDBX Classes
 90
     4095
280
     0
281
     0
  0
CLASS
  1
SCALE
  2
AcDbScale
  3
ObjectDBX Classes
 90
     1153
280
     0
281
     0
  0
CLASS
  1
MATERIAL
  2
AcDbMaterial
  3
ObjectDBX Classes
 90
     1153
280
     0
281
     0
  0
CLASS
  1
TABLESTYLE
  2
AcDbTableStyle
  3
ObjectDBX Classes
 90
     4095
280
     0
281
     0
  0
CLASS
  1
SUN
  2
AcDbSun
  3
SCENEOE
 90
    33921
280
     0
281
     0
  0
CLASS
  1
MLEADERSTYLE
  2
AcDbMLeaderStyle
  3
ACDB_MLEADERSTYLE_CLASS
 90
     4095
280
     0
281
     0
  0
CLASS
  1
ACDBSECTIONVIEWSTYLE
  2
AcDbSectionViewStyle
  3
ObjectDBX Classes
 90
     1025
280
     0
281
     0
  0
CLASS
  1
ACDBDETAILVIEWSTYLE
  2
AcDbDetailViewStyle
  3
ObjectDBX Classes
 90
     1025
280
     0
281
     0
  0
CLASS
  1
DIMASSOC
  2
AcDbDimAssoc
  3
"AcDbDimAssoc|Product Desc:     AcDim ARX App For Dimension|Company:          Autodesk, Inc.|WEB Address:      www.autodesk.com"
 90
    32768
280
     0
281
     0
  0
CLASS
  1
CELLSTYLEMAP
  2
AcDbCellStyleMap
  3
ObjectDBX Classes
 90
     1152
280
     0
281
     0
  0
CLASS
  1
ACAD_TABLE
  2
AcDbTable
  3
ObjectDBX Classes
 90
    33793
280
     0
281
     1
  0
CLASS
  1
TABLECONTENT
  2
AcDbTableContent
  3
ObjectDBX Classes
 90
    33920
280
     0
281
     0
  0
CLASS
  1
TABLEGEOMETRY
  2
AcDbTableGeometry
  3
ObjectDBX Classes
 90
    33920
280
     0
281
     0
  0
CLASS
  1
TABLETEMPLATE
  2
AcDbTableTemplate
  3
ObjectDBX Classes
 90
    33920
280
     0
281
     0
  0
CLASS
  1
ACAD_EVALUATION_GRAPH
  2
AcDbEvalGraph
  3
ObjectDBX Classes
 90
    33921
280
     0
281
     0
  0
CLASS
  1
ACDB_DYNAMICBLOCKPURGEPREVENTER_VERSION
  2
AcDbDynamicBlockPurgePreventer
  3
ObjectDBX Classes
 90
    33921
280
     0
281
     0
  0
CLASS
  1
ACAECUSTOBJ
  2
AcAeEditorObj
  3
AcAeEditorObj
 90
    33792
280
     0
281
     0
  0
ENDSEC
  0
SECTION
  2
TABLES
  0
TABLE
  2
VPORT
  5
7
330
0
100
AcDbSymbolTable
 70
     1
  0
VPORT
  5
15
330
7
100
AcDbSymbolTableRecord
100
AcDbViewportTableRecord
  2
*ACTIVE
 70
     0
 10
0.0
 20
0.0
 11
1.0
 21
1.0
 12
3331.539745541963
 22
2065.635164472971
 13
0.0
 23
0.0
 14
1.0
 24
1.0
 15
0.0
 25
0.0
 16
0.0
 26
0.0
 36
1.0
 17
0.0
 27
0.0
 37
0.0
 40
4243.422278038488
 41
2.5
 42
50.0
 43
0.0
 44
0.0
 50
0.0
 51
0.0
 71
     0
 72
   100
 73
     1
 74
     1
 75
     0
 76
     0
 77
     0
 78
     0
281
     0
 65
     0
110
0.0
120
0.0
130
0.0
111
1.0
121
0.0
131
0.0
112
0.0
122
1.0
132
0.0
 79
     0
146
0.0
1001
ACAD_NAV_VCDISPLAY
1070
     3
  0
ENDTAB
  0
TABLE
  2
LTYPE
  5
4
330
0
100
AcDbSymbolTable
 70
     2
  0
LTYPE
  5
11
330
4
100
AcDbSymbolTableRecord
100
AcDbLinetypeTableRecord
  2
ByBlock
 70
     0
  3

 72
    65
 73
     0
 40
0.0
  0
LTYPE
  5
12
330
4
100
AcDbSymbolTableRecord
100
AcDbLinetypeTableRecord
  2
ByLayer
 70
     0
  3

 72
    65
 73
     0
 40
0.0
  0
LTYPE
  5
13
330
4
100
AcDbSymbolTableRecord
100
AcDbLinetypeTableRecord
  2
Continuous
 70
     0
  3
Solid line
 72
    65
 73
     0
 40
0.0
  0
ENDTAB
  0
TABLE
  2
LAYER
  5
2
102
{ACAD_XDICTIONARY
360
342
102
}
330
0
100
AcDbSymbolTable
 70
     4
  0
LAYER
  5
14
102
{ACAD_XDICTIONARY
360
8599
102
}
330
2
100
AcDbSymbolTableRecord
100
AcDbLayerTableRecord
  2
0
 70
     0
 62
     7
  6
Continuous
370
    -3
390
1D
  0
LAYER
  5
162
330
2
100
AcDbSymbolTableRecord
100
AcDbLayerTableRecord
  2
Defpoints
 70
     0
 62
     7
  6
Continuous
290
     0
370
    -3
390
1D
  0
LAYER
  5
FBA
102
{ACAD_XDICTIONARY
360
859B
102
}
330
2
100
AcDbSymbolTableRecord
100
AcDbLayerTableRecord
  2
用紙枠
 70
     4
 62
     7
  6
Continuous
290
     0
370
    -3
390
1D
1001
AcAecLayerStandard
1000

1000

1001
AcCmTransparency
1071
        0
  0
LAYER
  5
FBB
102
{ACAD_XDICTIONARY
360
859D
102
}
330
2
100
AcDbSymbolTableRecord
100
AcDbLayerTableRecord
  2
図面枠
 70
     0
 62
     7
  6
Continuous
370
    -3
390
1D
1001
AcAecLayerStandard
1000

1000

1001
AcCmTransparency
1071
        0
  0
ENDTAB
  0
TABLE
  2
STYLE
  5
3
330
0
100
AcDbSymbolTable
 70
     1
  0
STYLE
  5
17
330
3
100
AcDbSymbolTableRecord
100
AcDbTextStyleTableRecord
  2
Standard
 70
     0
 40
0.0
 41
1.0
 50
0.0
 71
     0
 42
0.0
  3
txt.shx
  4
bigfont.shx
  0
ENDTAB
  0
TABLE
  2
VIEW
  5
5
330
0
100
AcDbSymbolTable
 70
     0
  0
ENDTAB
  0
TABLE
  2
UCS
  5
6
330
0
100
AcDbSymbolTable
 70
     0
  0
ENDTAB
  0
TABLE
  2
APPID
  5
8
330
0
100
AcDbSymbolTable
 70
    19
  0
APPID
  5
16
330
8
100
AcDbSymbolTableRecord
100
AcDbRegAppTableRecord
  2
ACAD
 70
     0
  0
APPID
  5
196
330
8
100
AcDbSymbolTableRecord
100
AcDbRegAppTableRecord
  2
ACAD_EXEMPT_FROM_CAD_STANDARDS
 70
     0
  0
APPID
  5
19D
330
8
100
AcDbSymbolTableRecord
100
AcDbRegAppTableRecord
  2
ACAD_DSTYLE_DIMJAG
 70
     0
  0
APPID
  5
19E
330
8
100
AcDbSymbolTableRecord
100
AcDbRegAppTableRecord
  2
ACAD_DSTYLE_DIMTALN
 70
     0
  0
APPID
  5
1EC
330
8
100
AcDbSymbolTableRecord
100
AcDbRegAppTableRecord
  2
ACAD_NAV_VCDISPLAY
 70
     0
  0
APPID
  5
47B
330
8
100
AcDbSymbolTableRecord
100
AcDbRegAppTableRecord
  2
ACAD_PSEXT
 70
     0
  0
APPID
  5
47C
330
8
100
AcDbSymbolTableRecord
100
AcDbRegAppTableRecord
  2
AcadAnnotative
 70
     0
  0
APPID
  5
47D
330
8
100
AcDbSymbolTableRecord
100
AcDbRegAppTableRecord
  2
AcAecLayerStandard
 70
     0
  0
APPID
  5
47E
330
8
100
AcDbSymbolTableRecord
100
AcDbRegAppTableRecord
  2
AcCmTransparency
 70
     0
  0
APPID
  5
47F
330
8
100
AcDbSymbolTableRecord
100
AcDbRegAppTableRecord
  2
AcadAnnoAV
 70
     0
  0
APPID
  5
B1D
330
8
100
AcDbSymbolTableRecord
100
AcDbRegAppTableRecord
  2
AcadAnnoPO
 70
     0
  0
APPID
  5
D3E
330
8
100
AcDbSymbolTableRecord
100
AcDbRegAppTableRecord
  2
ACAD_MLEADERVER
 70
     0
  0
APPID
  5
1CC7
330
8
100
AcDbSymbolTableRecord
100
AcDbRegAppTableRecord
  2
AcadStringInfo
 70
     0
  0
APPID
  5
1CC8
330
8
100
AcDbSymbolTableRecord
100
AcDbRegAppTableRecord
  2
ACAD_DSTYLE_DIMBREAK
 70
     0
  0
APPID
  5
1CC9
330
8
100
AcDbSymbolTableRecord
100
AcDbRegAppTableRecord
  2
PLOTTRANSPARENCY
 70
     0
  0
APPID
  5
1CCA
330
8
100
AcDbSymbolTableRecord
100
AcDbRegAppTableRecord
  2
AcDbDynamicBlockGUID
 70
     0
  0
APPID
  5
1CCB
330
8
100
AcDbSymbolTableRecord
100
AcDbRegAppTableRecord
  2
ACAUTHENVIRON
 70
     0
  0
APPID
  5
1CCC
330
8
100
AcDbSymbolTableRecord
100
AcDbRegAppTableRecord
  2
AcLayerTools
 70
     0
  0
APPID
  5
1E25
330
8
100
AcDbSymbolTableRecord
100
AcDbRegAppTableRecord
  2
AcDbDynamicBlockTrueName
 70
     0
  0
ENDTAB
  0
TABLE
  2
DIMSTYLE
  5
9
330
0
100
AcDbSymbolTable
 70
     1
100
AcDbDimStyleTable
 71
     1
340
18
  0
DIMSTYLE
105
18
330
9
100
AcDbSymbolTableRecord
100
AcDbDimStyleTableRecord
  2
Standard
 70
     0
 40
2.0
 41
35.0
 43
10.0
 73
     0
 74
     0
 77
     3
140
35.0
147
10.0
172
     1
179
     4
271
     0
272
     0
340
17
341
AB5
342
AAF
372
     0
1001
ACAD_DSTYLE_DIMJAG
1070
   388
1040
1.5
1001
ACAD_DSTYLE_DIMTALN
1070
   392
1070
     0
  0
ENDTAB
  0
TABLE
  2
BLOCK_RECORD
  5
1
330
0
100
AcDbSymbolTable
 70
     2
  0
BLOCK_RECORD
  5
A
102
{ACAD_XDICTIONARY
360
14C
102
}
330
1
100
AcDbSymbolTableRecord
100
AcDbBlockTableRecord
  2
*MODEL_SPACE
340
20
  0
BLOCK_RECORD
  5
B
330
1
100
AcDbSymbolTableRecord
100
AcDbBlockTableRecord
  2
*PAPER_SPACE
340
21
  0
BLOCK_RECORD
  5
AAF
330
1
100
AcDbSymbolTableRecord
100
AcDbBlockTableRecord
  2
_Open
340
0
  0
BLOCK_RECORD
  5
AB5
330
1
100
AcDbSymbolTableRecord
100
AcDbBlockTableRecord
  2
_Closed
340
0
  0
ENDTAB
  0
ENDSEC
  0
SECTION
  2
BLOCKS
  0
BLOCK
  5
D
330
A
100
AcDbEntity
  8
0
100
AcDbBlockBegin
  2
*MODEL_SPACE
 70
     0
 10
0.0
 20
0.0
 30
0.0
  3
*MODEL_SPACE
  1

  0
ENDBLK
  5
E
330
A
100
AcDbEntity
  8
0
100
AcDbBlockEnd
  0
BLOCK
  5
F
330
B
100
AcDbEntity
 67
     1
  8
0
100
AcDbBlockBegin
  2
*PAPER_SPACE
 70
     0
 10
0.0
 20
0.0
 30
0.0
  3
*PAPER_SPACE
  1

  0
ENDBLK
  5
10
330
B
100
AcDbEntity
 67
     1
  8
0
100
AcDbBlockEnd
  0
BLOCK
  5
AB3
330
AAF
100
AcDbEntity
  8
0
370
     0
100
AcDbBlockBegin
  2
_Open
 70
     0
 10
0.0
 20
0.0
 30
0.0
  3
_Open
  1

  0
LINE
  5
AB0
330
AAF
100
AcDbEntity
  8
0
  6
ByBlock
 62
     0
370
    -2
100
AcDbLine
 10
-1.0
 20
0.1666666666666666
 30
0.0
 11
0.0
 21
0.0
 31
0.0
  0
LINE
  5
AB1
330
AAF
100
AcDbEntity
  8
0
  6
ByBlock
 62
     0
370
    -2
100
AcDbLine
 10
-1.0
 20
-0.1666666666666666
 30
0.0
 11
0.0
 21
0.0
 31
0.0
  0
LINE
  5
AB2
330
AAF
100
AcDbEntity
  8
0
  6
ByBlock
 62
     0
370
    -2
100
AcDbLine
 10
0.0
 20
0.0
 30
0.0
 11
-1.0
 21
0.0
 31
0.0
  0
ENDBLK
  5
AB4
330
AAF
100
AcDbEntity
  8
0
370
     0
100
AcDbBlockEnd
  0
BLOCK
  5
ABA
330
AB5
100
AcDbEntity
  8
0
370
     0
100
AcDbBlockBegin
  2
_Closed
 70
     0
 10
0.0
 20
0.0
 30
0.0
  3
_Closed
  1

  0
LINE
  5
AB6
330
AB5
100
AcDbEntity
  8
0
  6
ByBlock
 62
     0
370
    -2
100
AcDbLine
 10
-1.0
 20
0.1666666666666666
 30
0.0
 11
0.0
 21
0.0
 31
0.0
  0
LINE
  5
AB7
330
AB5
100
AcDbEntity
  8
0
  6
ByBlock
 62
     0
370
    -2
100
AcDbLine
 10
0.0
 20
0.0
 30
0.0
 11
-1.0
 21
-0.1666666666666666
 31
0.0
  0
LINE
  5
AB8
330
AB5
100
AcDbEntity
  8
0
  6
ByBlock
 62
     0
370
    -2
100
AcDbLine
 10
-1.0
 20
0.1666666666666666
 30
0.0
 11
-1.0
 21
-0.1666666666666666
 31
0.0
  0
LINE
  5
AB9
330
AB5
100
AcDbEntity
  8
0
  6
ByBlock
 62
     0
370
    -2
100
AcDbLine
 10
0.0
 20
0.0
 30
0.0
 11
-1.0
 21
0.0
 31
0.0
  0
ENDBLK
  5
ABB
330
AB5
100
AcDbEntity
  8
0
370
     0
100
AcDbBlockEnd
  0
ENDSEC
  0
SECTION
  2
ENTITIES
  0
LINE
  5
FCA
330
A
100
AcDbEntity
  8
図面枠
100
AcDbLine
 10
5740.0
 20
3786.777515104845
 30
0.0
 11
400.0
 21
3786.777515104845
 31
0.0
  0
TEXT
  5
1230
330
A
100
AcDbEntity
  8
図面枠
100
AcDbText
 10
500.0
 20
3836.777515104845
 30
0.0
 40
100.0
  1
太陽電池モジュール　SPR-X21-265
 11
500.0
 21
3886.777515104845
 31
0.0
100
AcDbText
 73
     2
  0
LINE
  5
6C6B
330
A
100
AcDbEntity
  8
0
100
AcDbLine
 10
2687.466279705098
 20
2392.388751933318
 30
0.0
 11
2687.466279705098
 21
1594.388751933318
 31
0.0
  0
LINE
  5
6C6C
330
A
100
AcDbEntity
  8
0
100
AcDbLine
 10
2687.466279705098
 20
1594.388751933318
 30
0.0
 11
2641.466279705098
 21
1594.388751933318
 31
0.0
  0
LINE
  5
6C6D
330
A
100
AcDbEntity
  8
0
100
AcDbLine
 10
2641.466279705098
 20
1594.388751933318
 30
0.0
 11
2641.466279705098
 21
2392.388751933318
 31
0.0
  0
LINE
  5
6C6E
330
A
100
AcDbEntity
  8
0
100
AcDbLine
 10
2641.466279705098
 20
2392.388751933318
 30
0.0
 11
2687.466279705098
 21
2392.388751933318
 31
0.0
  0
LINE
  5
7610
330
A
100
AcDbEntity
  8
0
100
AcDbLine
 10
2341.466279705098
 20
1594.388751933318
 30
0.0
 11
782.4662797050978
 21
1594.388751933318
 31
0.0
  0
LINE
  5
7611
330
A
100
AcDbEntity
  8
0
100
AcDbLine
 10
782.4662797050978
 20
1594.388751933318
 30
0.0
 11
782.4662797050978
 21
2392.388763171526
 31
0.0
  0
LINE
  5
7612
330
A
100
AcDbEntity
  8
0
100
AcDbLine
 10
782.4662797050978
 20
2392.388763171526
 30
0.0
 11
2341.466279705098
 21
2392.388763171526
 31
0.0
  0
LINE
  5
7613
330
A
100
AcDbEntity
  8
0
100
AcDbLine
 10
2341.466279705098
 20
2392.388763171526
 30
0.0
 11
2341.466279705098
 21
1594.388751933318
 31
0.0
  0
LINE
  5
7614
330
A
100
AcDbEntity
  8
0
100
AcDbLine
 10
789.7262219608557
 20
1601.565270472565
 30
0.0
 11
789.7262219608557
 21
2385.212244632279
 31
0.0
  0
LINE
  5
7615
330
A
100
AcDbEntity
  8
0
100
AcDbLine
 10
789.7262219608557
 20
2385.212244632279
 30
0.0
 11
2334.224487304981
 21
2385.212244632279
 31
0.0
  0
LINE
  5
7616
330
A
100
AcDbEntity
  8
0
100
AcDbLine
 10
2334.224487304981
 20
2385.212244632279
 30
0.0
 11
2334.224487304981
 21
1601.565270472565
 31
0.0
  0
LINE
  5
7617
330
A
100
AcDbEntity
  8
0
100
AcDbLine
 10
2334.224487304981
 20
1601.565270472565
 30
0.0
 11
789.7262219608557
 21
1601.565270472565
 31
0.0
  0
LINE
  5
7618
330
A
100
AcDbEntity
  8
0
100
AcDbLine
 10
924.2892516712018
 20
2360.815687889567
 30
0.0
 11
924.2892516712018
 21
2267.034097631761
 31
0.0
  0
LINE
  5
7619
330
A
100
AcDbEntity
  8
0
100
AcDbLine
 10
924.2892516712018
 20
2267.034097631761
 30
0.0
 11
906.6475919897293
 21
2249.832090881913
 31
0.0
  0
LINE
  5
761A
330
A
100
AcDbEntity
  8
0
100
AcDbLine
 10
906.6475919897293
 20
2249.832090881913
 30
0.0
 11
814.0470285176261
 21
2249.832090881913
 31
0.0
  0
LINE
  5
761B
330
A
100
AcDbEntity
  8
0
100
AcDbLine
 10
814.0470285176261
 20
2249.832090881913
 30
0.0
 11
796.6957665263763
 21
2267.034097631761
 31
0.0
  0
LINE
  5
761C
330
A
100
AcDbEntity
  8
0
100
AcDbLine
 10
796.6957665263763
 20
2267.034097631761
 30
0.0
 11
796.6957665263763
 21
2360.815687889567
 31
0.0
  0
LINE
  5
761D
330
A
100
AcDbEntity
  8
0
100
AcDbLine
 10
796.6957665263763
 20
2360.815687889567
 30
0.0
 11
814.0470285176261
 21
2378.035726093032
 31
0.0
  0
LINE
  5
761E
330
A
100
AcDbEntity
  8
0
100
AcDbLine
 10
814.0470285176261
 20
2378.035726093032
 30
0.0
 11
906.6475919897293
 21
2378.035726093032
 31
0.0
  0
LINE
  5
761F
330
A
100
AcDbEntity
  8
0
100
AcDbLine
 10
906.6475919897293
 20
2378.035726093032
 30
0.0
 11
924.2892516712018
 21
2360.815687889567
 31
0.0
  0
LINE
  5
7620
330
A
100
AcDbEntity
  8
0
100
AcDbLine
 10
1051.810137393475
 20
2360.815687889567
 30
0.0
 11
1051.810137393475
 21
2267.034097631761
 31
0.0
  0
LINE
  5
7621
330
A
100
AcDbEntity
  8
0
100
AcDbLine
 10
1051.810137393475
 20
2267.034097631761
 30
0.0
 11
1034.150327856361
 21
2249.832090881913
 31
0.0
  0
LINE
  5
7622
330
A
100
AcDbEntity
  8
0
100
AcDbLine
 10
1034.150327856361
 20
2249.832090881913
 30
0.0
 11
941.5679142398847
 21
2249.832090881913
 31
0.0
  0
LINE
  5
7623
330
A
100
AcDbEntity
  8
0
100
AcDbLine
 10
941.5679142398847
 20
2249.832090881913
 30
0.0
 11
924.198502393008
 21
2267.034097631761
 31
0.0
  0
LINE
  5
7624
330
A
100
AcDbEntity
  8
0
100
AcDbLine
 10
924.198502393008
 20
2267.034097631761
 30
0.0
 11
924.198502393008
 21
2360.815687889567
 31
0.0
  0
LINE
  5
7625
330
A
100
AcDbEntity
  8
0
100
AcDbLine
 10
924.198502393008
 20
2360.815687889567
 30
0.0
 11
941.5679142398847
 21
2378.035726093032
 31
0.0
  0
LINE
  5
7626
330
A
100
AcDbEntity
  8
0
100
AcDbLine
 10
941.5679142398847
 20
2378.035726093032
 30
0.0
 11
1034.150327856361
 21
2378.035726093032
 31
0.0
  0
LINE
  5
7627
330
A
100
AcDbEntity
  8
0
100
AcDbLine
 10
1034.150327856361
 20
2378.035726093032
 30
0.0
 11
1051.810137393475
 21
2360.815687889567
 31
0.0
  0
LINE
  5
7628
330
A
100
AcDbEntity
  8
0
100
AcDbLine
 10
1179.294723404465
 20
2360.815687889567
 30
0.0
 11
1179.294723404465
 21
2267.034097631761
 31
0.0
  0
LINE
  5
7629
330
A
100
AcDbEntity
  8
0
100
AcDbLine
 10
1179.294723404465
 20
2267.034097631761
 30
0.0
 11
1161.653063722978
 21
2249.832090881913
 31
0.0
  0
LINE
  5
762A
330
A
100
AcDbEntity
  8
0
100
AcDbLine
 10
1161.653063722978
 20
2249.832090881913
 30
0.0
 11
1069.070650106516
 21
2249.832090881913
 31
0.0
  0
LINE
  5
762B
330
A
100
AcDbEntity
  8
0
100
AcDbLine
 10
1069.070650106516
 20
2249.832090881913
 30
0.0
 11
1051.737537970908
 21
2267.034097631761
 31
0.0
  0
LINE
  5
762C
330
A
100
AcDbEntity
  8
0
100
AcDbLine
 10
1051.737537970908
 20
2267.034097631761
 30
0.0
 11
1051.737537970908
 21
2360.815687889567
 31
0.0
  0
LINE
  5
762D
330
A
100
AcDbEntity
  8
0
100
AcDbLine
 10
1051.737537970908
 20
2360.815687889567
 30
0.0
 11
1069.070650106516
 21
2378.035726093032
 31
0.0
  0
LINE
  5
762E
330
A
100
AcDbEntity
  8
0
100
AcDbLine
 10
1069.070650106516
 20
2378.035726093032
 30
0.0
 11
1161.653063722978
 21
2378.035726093032
 31
0.0
  0
LINE
  5
762F
330
A
100
AcDbEntity
  8
0
100
AcDbLine
 10
1161.653063722978
 20
2378.035726093032
 30
0.0
 11
1179.294723404465
 21
2360.815687889567
 31
0.0
  0
LINE
  5
7630
330
A
100
AcDbEntity
  8
0
100
AcDbLine
 10
1306.815609126723
 20
2360.815687889567
 30
0.0
 11
1306.815609126723
 21
2267.034097631761
 31
0.0
  0
LINE
  5
7631
330
A
100
AcDbEntity
  8
0
100
AcDbLine
 10
1306.815609126723
 20
2267.034097631761
 30
0.0
 11
1289.210249156534
 21
2249.832090881913
 31
0.0
  0
LINE
  5
7632
330
A
100
AcDbEntity
  8
0
100
AcDbLine
 10
1289.210249156534
 20
2249.832090881913
 30
0.0
 11
1196.573385973148
 21
2249.832090881913
 31
0.0
  0
LINE
  5
7633
330
A
100
AcDbEntity
  8
0
100
AcDbLine
 10
1196.573385973148
 20
2249.832090881913
 30
0.0
 11
1179.258423693181
 21
2267.034097631761
 31
0.0
  0
LINE
  5
7634
330
A
100
AcDbEntity
  8
0
100
AcDbLine
 10
1179.258423693181
 20
2267.034097631761
 30
0.0
 11
1179.258423693181
 21
2360.815687889567
 31
0.0
  0
LINE
  5
7635
330
A
100
AcDbEntity
  8
0
100
AcDbLine
 10
1179.258423693181
 20
2360.815687889567
 30
0.0
 11
1196.573385973148
 21
2378.035726093032
 31
0.0
  0
LINE
  5
7636
330
A
100
AcDbEntity
  8
0
100
AcDbLine
 10
1196.573385973148
 20
2378.035726093032
 30
0.0
 11
1289.210249156534
 21
2378.035726093032
 31
0.0
  0
LINE
  5
7637
330
A
100
AcDbEntity
  8
0
100
AcDbLine
 10
1289.210249156534
 20
2378.035726093032
 30
0.0
 11
1306.815609126723
 21
2360.815687889567
 31
0.0
  0
LINE
  5
7638
330
A
100
AcDbEntity
  8
0
100
AcDbLine
 10
1434.354644704623
 20
2360.815687889567
 30
0.0
 11
1434.354644704623
 21
2267.034097631761
 31
0.0
  0
LINE
  5
7639
330
A
100
AcDbEntity
  8
0
100
AcDbLine
 10
1434.354644704623
 20
2267.034097631761
 30
0.0
 11
1416.694835167509
 21
2249.832090881913
 31
0.0
  0
LINE
  5
763A
330
A
100
AcDbEntity
  8
0
100
AcDbLine
 10
1416.694835167509
 20
2249.832090881913
 30
0.0
 11
1324.076121839779
 21
2249.832090881913
 31
0.0
  0
LINE
  5
763B
330
A
100
AcDbEntity
  8
0
100
AcDbLine
 10
1324.076121839779
 20
2249.832090881913
 30
0.0
 11
1306.761159559798
 21
2267.034097631761
 31
0.0
  0
LINE
  5
763C
330
A
100
AcDbEntity
  8
0
100
AcDbLine
 10
1306.761159559798
 20
2267.034097631761
 30
0.0
 11
1306.761159559798
 21
2360.815687889567
 31
0.0
  0
LINE
  5
763D
330
A
100
AcDbEntity
  8
0
100
AcDbLine
 10
1306.761159559798
 20
2360.815687889567
 30
0.0
 11
1324.076121839779
 21
2378.035726093032
 31
0.0
  0
LINE
  5
763E
330
A
100
AcDbEntity
  8
0
100
AcDbLine
 10
1324.076121839779
 20
2378.035726093032
 30
0.0
 11
1416.694835167509
 21
2378.035726093032
 31
0.0
  0
LINE
  5
763F
330
A
100
AcDbEntity
  8
0
100
AcDbLine
 10
1416.694835167509
 20
2378.035726093032
 30
0.0
 11
1434.354644704623
 21
2360.815687889567
 31
0.0
  0
LINE
  5
7640
330
A
100
AcDbEntity
  8
0
100
AcDbLine
 10
1561.821080859986
 20
2360.815687889567
 30
0.0
 11
1561.821080859986
 21
2267.034097631761
 31
0.0
  0
LINE
  5
7641
330
A
100
AcDbEntity
  8
0
100
AcDbLine
 10
1561.821080859986
 20
2267.034097631761
 30
0.0
 11
1544.179421178514
 21
2249.832090881913
 31
0.0
  0
LINE
  5
7642
330
A
100
AcDbEntity
  8
0
100
AcDbLine
 10
1544.179421178514
 20
2249.832090881913
 30
0.0
 11
1451.61515741768
 21
2249.832090881913
 31
0.0
  0
LINE
  5
7643
330
A
100
AcDbEntity
  8
0
100
AcDbLine
 10
1451.61515741768
 20
2249.832090881913
 30
0.0
 11
1434.263895426444
 21
2267.034097631761
 31
0.0
  0
LINE
  5
7644
330
A
100
AcDbEntity
  8
0
100
AcDbLine
 10
1434.263895426444
 20
2267.034097631761
 30
0.0
 11
1434.263895426444
 21
2360.815687889567
 31
0.0
  0
LINE
  5
7645
330
A
100
AcDbEntity
  8
0
100
AcDbLine
 10
1434.263895426444
 20
2360.815687889567
 30
0.0
 11
1451.61515741768
 21
2378.035726093032
 31
0.0
  0
LINE
  5
7646
330
A
100
AcDbEntity
  8
0
100
AcDbLine
 10
1451.61515741768
 20
2378.035726093032
 30
0.0
 11
1544.179421178514
 21
2378.035726093032
 31
0.0
  0
LINE
  5
7647
330
A
100
AcDbEntity
  8
0
100
AcDbLine
 10
1544.179421178514
 20
2378.035726093032
 30
0.0
 11
1561.821080859986
 21
2360.815687889567
 31
0.0
  0
LINE
  5
7648
330
A
100
AcDbEntity
  8
0
100
AcDbLine
 10
1689.378266293528
 20
2360.815687889567
 30
0.0
 11
1689.378266293528
 21
2267.034097631761
 31
0.0
  0
LINE
  5
7649
330
A
100
AcDbEntity
  8
0
100
AcDbLine
 10
1689.378266293528
 20
2267.034097631761
 30
0.0
 11
1671.736606612055
 21
2249.832090881913
 31
0.0
  0
LINE
  5
764A
330
A
100
AcDbEntity
  8
0
100
AcDbLine
 10
1671.736606612055
 20
2249.832090881913
 30
0.0
 11
1579.136043139953
 21
2249.832090881913
 31
0.0
  0
LINE
  5
764B
330
A
100
AcDbEntity
  8
0
100
AcDbLine
 10
1579.136043139953
 20
2249.832090881913
 30
0.0
 11
1561.784781148703
 21
2267.034097631761
 31
0.0
  0
LINE
  5
764C
330
A
100
AcDbEntity
  8
0
100
AcDbLine
 10
1561.784781148703
 20
2267.034097631761
 30
0.0
 11
1561.784781148703
 21
2360.815687889567
 31
0.0
  0
LINE
  5
764D
330
A
100
AcDbEntity
  8
0
100
AcDbLine
 10
1561.784781148703
 20
2360.815687889567
 30
0.0
 11
1579.136043139953
 21
2378.035726093032
 31
0.0
  0
LINE
  5
764E
330
A
100
AcDbEntity
  8
0
100
AcDbLine
 10
1579.136043139953
 20
2378.035726093032
 30
0.0
 11
1671.736606612055
 21
2378.035726093032
 31
0.0
  0
LINE
  5
764F
330
A
100
AcDbEntity
  8
0
100
AcDbLine
 10
1671.736606612055
 20
2378.035726093032
 30
0.0
 11
1689.378266293528
 21
2360.815687889567
 31
0.0
  0
LINE
  5
7650
330
A
100
AcDbEntity
  8
0
100
AcDbLine
 10
1816.899152015801
 20
2360.815687889567
 30
0.0
 11
1816.899152015801
 21
2267.034097631761
 31
0.0
  0
LINE
  5
7651
330
A
100
AcDbEntity
  8
0
100
AcDbLine
 10
1816.899152015801
 20
2267.034097631761
 30
0.0
 11
1799.239342478687
 21
2249.832090881913
 31
0.0
  0
LINE
  5
7652
330
A
100
AcDbEntity
  8
0
100
AcDbLine
 10
1799.239342478687
 20
2249.832090881913
 30
0.0
 11
1706.63877900657
 21
2249.832090881913
 31
0.0
  0
LINE
  5
7653
330
A
100
AcDbEntity
  8
0
100
AcDbLine
 10
1706.63877900657
 20
2249.832090881913
 30
0.0
 11
1689.287517015335
 21
2267.034097631761
 31
0.0
  0
LINE
  5
7654
330
A
100
AcDbEntity
  8
0
100
AcDbLine
 10
1689.287517015335
 20
2267.034097631761
 30
0.0
 11
1689.287517015335
 21
2360.815687889567
 31
0.0
  0
LINE
  5
7655
330
A
100
AcDbEntity
  8
0
100
AcDbLine
 10
1689.287517015335
 20
2360.815687889567
 30
0.0
 11
1706.63877900657
 21
2378.035726093032
 31
0.0
  0
LINE
  5
7656
330
A
100
AcDbEntity
  8
0
100
AcDbLine
 10
1706.63877900657
 20
2378.035726093032
 30
0.0
 11
1799.239342478687
 21
2378.035726093032
 31
0.0
  0
LINE
  5
7657
330
A
100
AcDbEntity
  8
0
100
AcDbLine
 10
1799.239342478687
 20
2378.035726093032
 30
0.0
 11
1816.899152015801
 21
2360.815687889567
 31
0.0
  0
LINE
  5
7658
330
A
100
AcDbEntity
  8
0
100
AcDbLine
 10
1944.383738026791
 20
2360.815687889567
 30
0.0
 11
1944.383738026791
 21
2267.034097631761
 31
0.0
  0
LINE
  5
7659
330
A
100
AcDbEntity
  8
0
100
AcDbLine
 10
1944.383738026791
 20
2267.034097631761
 30
0.0
 11
1926.742078345304
 21
2249.832090881913
 31
0.0
  0
LINE
  5
765A
330
A
100
AcDbEntity
  8
0
100
AcDbLine
 10
1926.742078345304
 20
2249.832090881913
 30
0.0
 11
1834.141514873216
 21
2249.832090881913
 31
0.0
  0
LINE
  5
765B
330
A
100
AcDbEntity
  8
0
100
AcDbLine
 10
1834.141514873216
 20
2249.832090881913
 30
0.0
 11
1816.826552593235
 21
2267.034097631761
 31
0.0
  0
LINE
  5
765C
330
A
100
AcDbEntity
  8
0
100
AcDbLine
 10
1816.826552593235
 20
2267.034097631761
 30
0.0
 11
1816.826552593235
 21
2360.815687889567
 31
0.0
  0
LINE
  5
765D
330
A
100
AcDbEntity
  8
0
100
AcDbLine
 10
1816.826552593235
 20
2360.815687889567
 30
0.0
 11
1834.141514873216
 21
2378.035726093032
 31
0.0
  0
LINE
  5
765E
330
A
100
AcDbEntity
  8
0
100
AcDbLine
 10
1834.141514873216
 20
2378.035726093032
 30
0.0
 11
1926.742078345304
 21
2378.035726093032
 31
0.0
  0
LINE
  5
765F
330
A
100
AcDbEntity
  8
0
100
AcDbLine
 10
1926.742078345304
 20
2378.035726093032
 30
0.0
 11
1944.383738026791
 21
2360.815687889567
 31
0.0
  0
LINE
  5
7660
330
A
100
AcDbEntity
  8
0
100
AcDbLine
 10
2071.90462374905
 20
2360.815687889567
 30
0.0
 11
2071.90462374905
 21
2267.034097631761
 31
0.0
  0
LINE
  5
7661
330
A
100
AcDbEntity
  8
0
100
AcDbLine
 10
2071.90462374905
 20
2267.034097631761
 30
0.0
 11
2054.262964067578
 21
2249.832090881913
 31
0.0
  0
LINE
  5
7662
330
A
100
AcDbEntity
  8
0
100
AcDbLine
 10
2054.262964067578
 20
2249.832090881913
 30
0.0
 11
1961.662400595474
 21
2249.832090881913
 31
0.0
  0
LINE
  5
7663
330
A
100
AcDbEntity
  8
0
100
AcDbLine
 10
1961.662400595474
 20
2249.832090881913
 30
0.0
 11
1944.347438315508
 21
2267.034097631761
 31
0.0
  0
LINE
  5
7664
330
A
100
AcDbEntity
  8
0
100
AcDbLine
 10
1944.347438315508
 20
2267.034097631761
 30
0.0
 11
1944.347438315508
 21
2360.815687889567
 31
0.0
  0
LINE
  5
7665
330
A
100
AcDbEntity
  8
0
100
AcDbLine
 10
1944.347438315508
 20
2360.815687889567
 30
0.0
 11
1961.662400595474
 21
2378.035726093032
 31
0.0
  0
LINE
  5
7666
330
A
100
AcDbEntity
  8
0
100
AcDbLine
 10
1961.662400595474
 20
2378.035726093032
 30
0.0
 11
2054.262964067578
 21
2378.035726093032
 31
0.0
  0
LINE
  5
7667
330
A
100
AcDbEntity
  8
0
100
AcDbLine
 10
2054.262964067578
 20
2378.035726093032
 30
0.0
 11
2071.90462374905
 21
2360.815687889567
 31
0.0
  0
LINE
  5
7668
330
A
100
AcDbEntity
  8
0
100
AcDbLine
 10
2199.425509471309
 20
2360.815687889567
 30
0.0
 11
2199.425509471309
 21
2267.034097631761
 31
0.0
  0
LINE
  5
7669
330
A
100
AcDbEntity
  8
0
100
AcDbLine
 10
2199.425509471309
 20
2267.034097631761
 30
0.0
 11
2181.783849789836
 21
2249.832090881913
 31
0.0
  0
LINE
  5
766A
330
A
100
AcDbEntity
  8
0
100
AcDbLine
 10
2181.783849789836
 20
2249.832090881913
 30
0.0
 11
2089.165136462106
 21
2249.832090881913
 31
0.0
  0
LINE
  5
766B
330
A
100
AcDbEntity
  8
0
100
AcDbLine
 10
2089.165136462106
 20
2249.832090881913
 30
0.0
 11
2071.850174182139
 21
2267.034097631761
 31
0.0
  0
LINE
  5
766C
330
A
100
AcDbEntity
  8
0
100
AcDbLine
 10
2071.850174182139
 20
2267.034097631761
 30
0.0
 11
2071.850174182139
 21
2360.815687889567
 31
0.0
  0
LINE
  5
766D
330
A
100
AcDbEntity
  8
0
100
AcDbLine
 10
2071.850174182139
 20
2360.815687889567
 30
0.0
 11
2089.165136462106
 21
2378.035726093032
 31
0.0
  0
LINE
  5
766E
330
A
100
AcDbEntity
  8
0
100
AcDbLine
 10
2089.165136462106
 20
2378.035726093032
 30
0.0
 11
2181.783849789836
 21
2378.035726093032
 31
0.0
  0
LINE
  5
766F
330
A
100
AcDbEntity
  8
0
100
AcDbLine
 10
2181.783849789836
 20
2378.035726093032
 30
0.0
 11
2199.425509471309
 21
2360.815687889567
 31
0.0
  0
LINE
  5
7670
330
A
100
AcDbEntity
  8
0
100
AcDbLine
 10
2326.946395193596
 20
2360.815687889567
 30
0.0
 11
2326.946395193596
 21
2267.034097631761
 31
0.0
  0
LINE
  5
7671
330
A
100
AcDbEntity
  8
0
100
AcDbLine
 10
2326.946395193596
 20
2267.034097631761
 30
0.0
 11
2309.268435800841
 21
2249.832090881913
 31
0.0
  0
LINE
  5
7672
330
A
100
AcDbEntity
  8
0
100
AcDbLine
 10
2309.268435800841
 20
2249.832090881913
 30
0.0
 11
2216.704172040006
 21
2249.832090881913
 31
0.0
  0
LINE
  5
7673
330
A
100
AcDbEntity
  8
0
100
AcDbLine
 10
2216.704172040006
 20
2249.832090881913
 30
0.0
 11
2199.352910048771
 21
2267.034097631761
 31
0.0
  0
LINE
  5
7674
330
A
100
AcDbEntity
  8
0
100
AcDbLine
 10
2199.352910048771
 20
2267.034097631761
 30
0.0
 11
2199.352910048771
 21
2360.815687889567
 31
0.0
  0
LINE
  5
7675
330
A
100
AcDbEntity
  8
0
100
AcDbLine
 10
2199.352910048771
 20
2360.815687889567
 30
0.0
 11
2216.704172040006
 21
2378.035726093032
 31
0.0
  0
LINE
  5
7676
330
A
100
AcDbEntity
  8
0
100
AcDbLine
 10
2216.704172040006
 20
2378.035726093032
 30
0.0
 11
2309.268435800841
 21
2378.035726093032
 31
0.0
  0
LINE
  5
7677
330
A
100
AcDbEntity
  8
0
100
AcDbLine
 10
2309.268435800841
 20
2378.035726093032
 30
0.0
 11
2326.946395193596
 21
2360.815687889567
 31
0.0
  0
LINE
  5
7678
330
A
100
AcDbEntity
  8
0
100
AcDbLine
 10
924.2892516712018
 20
2232.612052678447
 30
0.0
 11
924.2892516712018
 21
2138.830462420626
 31
0.0
  0
LINE
  5
7679
330
A
100
AcDbEntity
  8
0
100
AcDbLine
 10
924.2892516712018
 20
2138.830462420626
 30
0.0
 11
906.6475919897293
 21
2121.628455670779
 31
0.0
  0
LINE
  5
767A
330
A
100
AcDbEntity
  8
0
100
AcDbLine
 10
906.6475919897293
 20
2121.628455670779
 30
0.0
 11
814.0470285176261
 21
2121.628455670779
 31
0.0
  0
LINE
  5
767B
330
A
100
AcDbEntity
  8
0
100
AcDbLine
 10
814.0470285176261
 20
2121.628455670779
 30
0.0
 11
796.6957665263763
 21
2138.830462420626
 31
0.0
  0
LINE
  5
767C
330
A
100
AcDbEntity
  8
0
100
AcDbLine
 10
796.6957665263763
 20
2138.830462420626
 30
0.0
 11
796.6957665263763
 21
2232.612052678447
 31
0.0
  0
LINE
  5
767D
330
A
100
AcDbEntity
  8
0
100
AcDbLine
 10
796.6957665263763
 20
2232.612052678447
 30
0.0
 11
814.0470285176261
 21
2249.832090881913
 31
0.0
  0
LINE
  5
767E
330
A
100
AcDbEntity
  8
0
100
AcDbLine
 10
814.0470285176261
 20
2249.832090881913
 30
0.0
 11
906.6475919897293
 21
2249.832090881913
 31
0.0
  0
LINE
  5
767F
330
A
100
AcDbEntity
  8
0
100
AcDbLine
 10
906.6475919897293
 20
2249.832090881913
 30
0.0
 11
924.2892516712018
 21
2232.612052678447
 31
0.0
  0
LINE
  5
7680
330
A
100
AcDbEntity
  8
0
100
AcDbLine
 10
1051.810137393475
 20
2232.612052678447
 30
0.0
 11
1051.810137393475
 21
2138.830462420626
 31
0.0
  0
LINE
  5
7681
330
A
100
AcDbEntity
  8
0
100
AcDbLine
 10
1051.810137393475
 20
2138.830462420626
 30
0.0
 11
1034.150327856361
 21
2121.628455670779
 31
0.0
  0
LINE
  5
7682
330
A
100
AcDbEntity
  8
0
100
AcDbLine
 10
1034.150327856361
 20
2121.628455670779
 30
0.0
 11
941.5679142398847
 21
2121.628455670779
 31
0.0
  0
LINE
  5
7683
330
A
100
AcDbEntity
  8
0
100
AcDbLine
 10
941.5679142398847
 20
2121.628455670779
 30
0.0
 11
924.198502393008
 21
2138.830462420626
 31
0.0
  0
LINE
  5
7684
330
A
100
AcDbEntity
  8
0
100
AcDbLine
 10
924.198502393008
 20
2138.830462420626
 30
0.0
 11
924.198502393008
 21
2232.612052678447
 31
0.0
  0
LINE
  5
7685
330
A
100
AcDbEntity
  8
0
100
AcDbLine
 10
924.198502393008
 20
2232.612052678447
 30
0.0
 11
941.5679142398847
 21
2249.832090881913
 31
0.0
  0
LINE
  5
7686
330
A
100
AcDbEntity
  8
0
100
AcDbLine
 10
941.5679142398847
 20
2249.832090881913
 30
0.0
 11
1034.150327856361
 21
2249.832090881913
 31
0.0
  0
LINE
  5
7687
330
A
100
AcDbEntity
  8
0
100
AcDbLine
 10
1034.150327856361
 20
2249.832090881913
 30
0.0
 11
1051.810137393475
 21
2232.612052678447
 31
0.0
  0
LINE
  5
7688
330
A
100
AcDbEntity
  8
0
100
AcDbLine
 10
1179.294723404465
 20
2232.612052678447
 30
0.0
 11
1179.294723404465
 21
2138.830462420626
 31
0.0
  0
LINE
  5
7689
330
A
100
AcDbEntity
  8
0
100
AcDbLine
 10
1179.294723404465
 20
2138.830462420626
 30
0.0
 11
1161.653063722978
 21
2121.628455670779
 31
0.0
  0
LINE
  5
768A
330
A
100
AcDbEntity
  8
0
100
AcDbLine
 10
1161.653063722978
 20
2121.628455670779
 30
0.0
 11
1069.070650106516
 21
2121.628455670779
 31
0.0
  0
LINE
  5
768B
330
A
100
AcDbEntity
  8
0
100
AcDbLine
 10
1069.070650106516
 20
2121.628455670779
 30
0.0
 11
1051.737537970908
 21
2138.830462420626
 31
0.0
  0
LINE
  5
768C
330
A
100
AcDbEntity
  8
0
100
AcDbLine
 10
1051.737537970908
 20
2138.830462420626
 30
0.0
 11
1051.737537970908
 21
2232.612052678447
 31
0.0
  0
LINE
  5
768D
330
A
100
AcDbEntity
  8
0
100
AcDbLine
 10
1051.737537970908
 20
2232.612052678447
 30
0.0
 11
1069.070650106516
 21
2249.832090881913
 31
0.0
  0
LINE
  5
768E
330
A
100
AcDbEntity
  8
0
100
AcDbLine
 10
1069.070650106516
 20
2249.832090881913
 30
0.0
 11
1161.653063722978
 21
2249.832090881913
 31
0.0
  0
LINE
  5
768F
330
A
100
AcDbEntity
  8
0
100
AcDbLine
 10
1161.653063722978
 20
2249.832090881913
 30
0.0
 11
1179.294723404465
 21
2232.612052678447
 31
0.0
  0
LINE
  5
7690
330
A
100
AcDbEntity
  8
0
100
AcDbLine
 10
1306.815609126723
 20
2232.612052678447
 30
0.0
 11
1306.815609126723
 21
2138.830462420626
 31
0.0
  0
LINE
  5
7691
330
A
100
AcDbEntity
  8
0
100
AcDbLine
 10
1306.815609126723
 20
2138.830462420626
 30
0.0
 11
1289.210249156534
 21
2121.628455670779
 31
0.0
  0
LINE
  5
7692
330
A
100
AcDbEntity
  8
0
100
AcDbLine
 10
1289.210249156534
 20
2121.628455670779
 30
0.0
 11
1196.573385973148
 21
2121.628455670779
 31
0.0
  0
LINE
  5
7693
330
A
100
AcDbEntity
  8
0
100
AcDbLine
 10
1196.573385973148
 20
2121.628455670779
 30
0.0
 11
1179.258423693181
 21
2138.830462420626
 31
0.0
  0
LINE
  5
7694
330
A
100
AcDbEntity
  8
0
100
AcDbLine
 10
1179.258423693181
 20
2138.830462420626
 30
0.0
 11
1179.258423693181
 21
2232.612052678447
 31
0.0
  0
LINE
  5
7695
330
A
100
AcDbEntity
  8
0
100
AcDbLine
 10
1179.258423693181
 20
2232.612052678447
 30
0.0
 11
1196.573385973148
 21
2249.832090881913
 31
0.0
  0
LINE
  5
7696
330
A
100
AcDbEntity
  8
0
100
AcDbLine
 10
1196.573385973148
 20
2249.832090881913
 30
0.0
 11
1289.210249156534
 21
2249.832090881913
 31
0.0
  0
LINE
  5
7697
330
A
100
AcDbEntity
  8
0
100
AcDbLine
 10
1289.210249156534
 20
2249.832090881913
 30
0.0
 11
1306.815609126723
 21
2232.612052678447
 31
0.0
  0
LINE
  5
7698
330
A
100
AcDbEntity
  8
0
100
AcDbLine
 10
1434.354644704623
 20
2232.612052678447
 30
0.0
 11
1434.354644704623
 21
2138.830462420626
 31
0.0
  0
LINE
  5
7699
330
A
100
AcDbEntity
  8
0
100
AcDbLine
 10
1434.354644704623
 20
2138.830462420626
 30
0.0
 11
1416.694835167509
 21
2121.628455670779
 31
0.0
  0
LINE
  5
769A
330
A
100
AcDbEntity
  8
0
100
AcDbLine
 10
1416.694835167509
 20
2121.628455670779
 30
0.0
 11
1324.076121839779
 21
2121.628455670779
 31
0.0
  0
LINE
  5
769B
330
A
100
AcDbEntity
  8
0
100
AcDbLine
 10
1324.076121839779
 20
2121.628455670779
 30
0.0
 11
1306.761159559798
 21
2138.830462420626
 31
0.0
  0
LINE
  5
769C
330
A
100
AcDbEntity
  8
0
100
AcDbLine
 10
1306.761159559798
 20
2138.830462420626
 30
0.0
 11
1306.761159559798
 21
2232.612052678447
 31
0.0
  0
LINE
  5
769D
330
A
100
AcDbEntity
  8
0
100
AcDbLine
 10
1306.761159559798
 20
2232.612052678447
 30
0.0
 11
1324.076121839779
 21
2249.832090881913
 31
0.0
  0
LINE
  5
769E
330
A
100
AcDbEntity
  8
0
100
AcDbLine
 10
1324.076121839779
 20
2249.832090881913
 30
0.0
 11
1416.694835167509
 21
2249.832090881913
 31
0.0
  0
LINE
  5
769F
330
A
100
AcDbEntity
  8
0
100
AcDbLine
 10
1416.694835167509
 20
2249.832090881913
 30
0.0
 11
1434.354644704623
 21
2232.612052678447
 31
0.0
  0
LINE
  5
76A0
330
A
100
AcDbEntity
  8
0
100
AcDbLine
 10
1561.821080859986
 20
2232.612052678447
 30
0.0
 11
1561.821080859986
 21
2138.830462420626
 31
0.0
  0
LINE
  5
76A1
330
A
100
AcDbEntity
  8
0
100
AcDbLine
 10
1561.821080859986
 20
2138.830462420626
 30
0.0
 11
1544.179421178514
 21
2121.628455670779
 31
0.0
  0
LINE
  5
76A2
330
A
100
AcDbEntity
  8
0
100
AcDbLine
 10
1544.179421178514
 20
2121.628455670779
 30
0.0
 11
1451.61515741768
 21
2121.628455670779
 31
0.0
  0
LINE
  5
76A3
330
A
100
AcDbEntity
  8
0
100
AcDbLine
 10
1451.61515741768
 20
2121.628455670779
 30
0.0
 11
1434.263895426444
 21
2138.830462420626
 31
0.0
  0
LINE
  5
76A4
330
A
100
AcDbEntity
  8
0
100
AcDbLine
 10
1434.263895426444
 20
2138.830462420626
 30
0.0
 11
1434.263895426444
 21
2232.612052678447
 31
0.0
  0
LINE
  5
76A5
330
A
100
AcDbEntity
  8
0
100
AcDbLine
 10
1434.263895426444
 20
2232.612052678447
 30
0.0
 11
1451.61515741768
 21
2249.832090881913
 31
0.0
  0
LINE
  5
76A6
330
A
100
AcDbEntity
  8
0
100
AcDbLine
 10
1451.61515741768
 20
2249.832090881913
 30
0.0
 11
1544.179421178514
 21
2249.832090881913
 31
0.0
  0
LINE
  5
76A7
330
A
100
AcDbEntity
  8
0
100
AcDbLine
 10
1544.179421178514
 20
2249.832090881913
 30
0.0
 11
1561.821080859986
 21
2232.612052678447
 31
0.0
  0
LINE
  5
76A8
330
A
100
AcDbEntity
  8
0
100
AcDbLine
 10
1689.378266293528
 20
2232.612052678447
 30
0.0
 11
1689.378266293528
 21
2138.830462420626
 31
0.0
  0
LINE
  5
76A9
330
A
100
AcDbEntity
  8
0
100
AcDbLine
 10
1689.378266293528
 20
2138.830462420626
 30
0.0
 11
1671.736606612055
 21
2121.628455670779
 31
0.0
  0
LINE
  5
76AA
330
A
100
AcDbEntity
  8
0
100
AcDbLine
 10
1671.736606612055
 20
2121.628455670779
 30
0.0
 11
1579.136043139953
 21
2121.628455670779
 31
0.0
  0
LINE
  5
76AB
330
A
100
AcDbEntity
  8
0
100
AcDbLine
 10
1579.136043139953
 20
2121.628455670779
 30
0.0
 11
1561.784781148703
 21
2138.830462420626
 31
0.0
  0
LINE
  5
76AC
330
A
100
AcDbEntity
  8
0
100
AcDbLine
 10
1561.784781148703
 20
2138.830462420626
 30
0.0
 11
1561.784781148703
 21
2232.612052678447
 31
0.0
  0
LINE
  5
76AD
330
A
100
AcDbEntity
  8
0
100
AcDbLine
 10
1561.784781148703
 20
2232.612052678447
 30
0.0
 11
1579.136043139953
 21
2249.832090881913
 31
0.0
  0
LINE
  5
76AE
330
A
100
AcDbEntity
  8
0
100
AcDbLine
 10
1579.136043139953
 20
2249.832090881913
 30
0.0
 11
1671.736606612055
 21
2249.832090881913
 31
0.0
  0
LINE
  5
76AF
330
A
100
AcDbEntity
  8
0
100
AcDbLine
 10
1671.736606612055
 20
2249.832090881913
 30
0.0
 11
1689.378266293528
 21
2232.612052678447
 31
0.0
  0
LINE
  5
76B0
330
A
100
AcDbEntity
  8
0
100
AcDbLine
 10
1816.899152015801
 20
2232.612052678447
 30
0.0
 11
1816.899152015801
 21
2138.830462420626
 31
0.0
  0
LINE
  5
76B1
330
A
100
AcDbEntity
  8
0
100
AcDbLine
 10
1816.899152015801
 20
2138.830462420626
 30
0.0
 11
1799.239342478687
 21
2121.628455670779
 31
0.0
  0
LINE
  5
76B2
330
A
100
AcDbEntity
  8
0
100
AcDbLine
 10
1799.239342478687
 20
2121.628455670779
 30
0.0
 11
1706.63877900657
 21
2121.628455670779
 31
0.0
  0
LINE
  5
76B3
330
A
100
AcDbEntity
  8
0
100
AcDbLine
 10
1706.63877900657
 20
2121.628455670779
 30
0.0
 11
1689.287517015335
 21
2138.830462420626
 31
0.0
  0
LINE
  5
76B4
330
A
100
AcDbEntity
  8
0
100
AcDbLine
 10
1689.287517015335
 20
2138.830462420626
 30
0.0
 11
1689.287517015335
 21
2232.612052678447
 31
0.0
  0
LINE
  5
76B5
330
A
100
AcDbEntity
  8
0
100
AcDbLine
 10
1689.287517015335
 20
2232.612052678447
 30
0.0
 11
1706.63877900657
 21
2249.832090881913
 31
0.0
  0
LINE
  5
76B6
330
A
100
AcDbEntity
  8
0
100
AcDbLine
 10
1706.63877900657
 20
2249.832090881913
 30
0.0
 11
1799.239342478687
 21
2249.832090881913
 31
0.0
  0
LINE
  5
76B7
330
A
100
AcDbEntity
  8
0
100
AcDbLine
 10
1799.239342478687
 20
2249.832090881913
 30
0.0
 11
1816.899152015801
 21
2232.612052678447
 31
0.0
  0
LINE
  5
76B8
330
A
100
AcDbEntity
  8
0
100
AcDbLine
 10
1944.383738026791
 20
2232.612052678447
 30
0.0
 11
1944.383738026791
 21
2138.830462420626
 31
0.0
  0
LINE
  5
76B9
330
A
100
AcDbEntity
  8
0
100
AcDbLine
 10
1944.383738026791
 20
2138.830462420626
 30
0.0
 11
1926.742078345304
 21
2121.628455670779
 31
0.0
  0
LINE
  5
76BA
330
A
100
AcDbEntity
  8
0
100
AcDbLine
 10
1926.742078345304
 20
2121.628455670779
 30
0.0
 11
1834.141514873216
 21
2121.628455670779
 31
0.0
  0
LINE
  5
76BB
330
A
100
AcDbEntity
  8
0
100
AcDbLine
 10
1834.141514873216
 20
2121.628455670779
 30
0.0
 11
1816.826552593235
 21
2138.830462420626
 31
0.0
  0
LINE
  5
76BC
330
A
100
AcDbEntity
  8
0
100
AcDbLine
 10
1816.826552593235
 20
2138.830462420626
 30
0.0
 11
1816.826552593235
 21
2232.612052678447
 31
0.0
  0
LINE
  5
76BD
330
A
100
AcDbEntity
  8
0
100
AcDbLine
 10
1816.826552593235
 20
2232.612052678447
 30
0.0
 11
1834.141514873216
 21
2249.832090881913
 31
0.0
  0
LINE
  5
76BE
330
A
100
AcDbEntity
  8
0
100
AcDbLine
 10
1834.141514873216
 20
2249.832090881913
 30
0.0
 11
1926.742078345304
 21
2249.832090881913
 31
0.0
  0
LINE
  5
76BF
330
A
100
AcDbEntity
  8
0
100
AcDbLine
 10
1926.742078345304
 20
2249.832090881913
 30
0.0
 11
1944.383738026791
 21
2232.612052678447
 31
0.0
  0
LINE
  5
76C0
330
A
100
AcDbEntity
  8
0
100
AcDbLine
 10
2071.90462374905
 20
2232.612052678447
 30
0.0
 11
2071.90462374905
 21
2138.830462420626
 31
0.0
  0
LINE
  5
76C1
330
A
100
AcDbEntity
  8
0
100
AcDbLine
 10
2071.90462374905
 20
2138.830462420626
 30
0.0
 11
2054.262964067578
 21
2121.628455670779
 31
0.0
  0
LINE
  5
76C2
330
A
100
AcDbEntity
  8
0
100
AcDbLine
 10
2054.262964067578
 20
2121.628455670779
 30
0.0
 11
1961.662400595474
 21
2121.628455670779
 31
0.0
  0
LINE
  5
76C3
330
A
100
AcDbEntity
  8
0
100
AcDbLine
 10
1961.662400595474
 20
2121.628455670779
 30
0.0
 11
1944.347438315508
 21
2138.830462420626
 31
0.0
  0
LINE
  5
76C4
330
A
100
AcDbEntity
  8
0
100
AcDbLine
 10
1944.347438315508
 20
2138.830462420626
 30
0.0
 11
1944.347438315508
 21
2232.612052678447
 31
0.0
  0
LINE
  5
76C5
330
A
100
AcDbEntity
  8
0
100
AcDbLine
 10
1944.347438315508
 20
2232.612052678447
 30
0.0
 11
1961.662400595474
 21
2249.832090881913
 31
0.0
  0
LINE
  5
76C6
330
A
100
AcDbEntity
  8
0
100
AcDbLine
 10
1961.662400595474
 20
2249.832090881913
 30
0.0
 11
2054.262964067578
 21
2249.832090881913
 31
0.0
  0
LINE
  5
76C7
330
A
100
AcDbEntity
  8
0
100
AcDbLine
 10
2054.262964067578
 20
2249.832090881913
 30
0.0
 11
2071.90462374905
 21
2232.612052678447
 31
0.0
  0
LINE
  5
76C8
330
A
100
AcDbEntity
  8
0
100
AcDbLine
 10
2199.425509471309
 20
2232.612052678447
 30
0.0
 11
2199.425509471309
 21
2138.830462420626
 31
0.0
  0
LINE
  5
76C9
330
A
100
AcDbEntity
  8
0
100
AcDbLine
 10
2199.425509471309
 20
2138.830462420626
 30
0.0
 11
2181.783849789836
 21
2121.628455670779
 31
0.0
  0
LINE
  5
76CA
330
A
100
AcDbEntity
  8
0
100
AcDbLine
 10
2181.783849789836
 20
2121.628455670779
 30
0.0
 11
2089.165136462106
 21
2121.628455670779
 31
0.0
  0
LINE
  5
76CB
330
A
100
AcDbEntity
  8
0
100
AcDbLine
 10
2089.165136462106
 20
2121.628455670779
 30
0.0
 11
2071.850174182139
 21
2138.830462420626
 31
0.0
  0
LINE
  5
76CC
330
A
100
AcDbEntity
  8
0
100
AcDbLine
 10
2071.850174182139
 20
2138.830462420626
 30
0.0
 11
2071.850174182139
 21
2232.612052678447
 31
0.0
  0
LINE
  5
76CD
330
A
100
AcDbEntity
  8
0
100
AcDbLine
 10
2071.850174182139
 20
2232.612052678447
 30
0.0
 11
2089.165136462106
 21
2249.832090881913
 31
0.0
  0
LINE
  5
76CE
330
A
100
AcDbEntity
  8
0
100
AcDbLine
 10
2089.165136462106
 20
2249.832090881913
 30
0.0
 11
2181.783849789836
 21
2249.832090881913
 31
0.0
  0
LINE
  5
76CF
330
A
100
AcDbEntity
  8
0
100
AcDbLine
 10
2181.783849789836
 20
2249.832090881913
 30
0.0
 11
2199.425509471309
 21
2232.612052678447
 31
0.0
  0
LINE
  5
76D0
330
A
100
AcDbEntity
  8
0
100
AcDbLine
 10
2326.946395193596
 20
2232.612052678447
 30
0.0
 11
2326.946395193596
 21
2138.830462420626
 31
0.0
  0
LINE
  5
76D1
330
A
100
AcDbEntity
  8
0
100
AcDbLine
 10
2326.946395193596
 20
2138.830462420626
 30
0.0
 11
2309.268435800841
 21
2121.628455670779
 31
0.0
  0
LINE
  5
76D2
330
A
100
AcDbEntity
  8
0
100
AcDbLine
 10
2309.268435800841
 20
2121.628455670779
 30
0.0
 11
2216.704172040006
 21
2121.628455670779
 31
0.0
  0
LINE
  5
76D3
330
A
100
AcDbEntity
  8
0
100
AcDbLine
 10
2216.704172040006
 20
2121.628455670779
 30
0.0
 11
2199.352910048771
 21
2138.830462420626
 31
0.0
  0
LINE
  5
76D4
330
A
100
AcDbEntity
  8
0
100
AcDbLine
 10
2199.352910048771
 20
2138.830462420626
 30
0.0
 11
2199.352910048771
 21
2232.612052678447
 31
0.0
  0
LINE
  5
76D5
330
A
100
AcDbEntity
  8
0
100
AcDbLine
 10
2199.352910048771
 20
2232.612052678447
 30
0.0
 11
2216.704172040006
 21
2249.832090881913
 31
0.0
  0
LINE
  5
76D6
330
A
100
AcDbEntity
  8
0
100
AcDbLine
 10
2216.704172040006
 20
2249.832090881913
 30
0.0
 11
2309.268435800841
 21
2249.832090881913
 31
0.0
  0
LINE
  5
76D7
330
A
100
AcDbEntity
  8
0
100
AcDbLine
 10
2309.268435800841
 20
2249.832090881913
 30
0.0
 11
2326.946395193596
 21
2232.612052678447
 31
0.0
  0
LINE
  5
76D8
330
A
100
AcDbEntity
  8
0
100
AcDbLine
 10
924.2892516712018
 20
2104.426448920932
 30
0.0
 11
924.2892516712018
 21
2010.626827209492
 31
0.0
  0
LINE
  5
76D9
330
A
100
AcDbEntity
  8
0
100
AcDbLine
 10
924.2892516712018
 20
2010.626827209492
 30
0.0
 11
906.6475919897293
 21
1993.424820459659
 31
0.0
  0
LINE
  5
76DA
330
A
100
AcDbEntity
  8
0
100
AcDbLine
 10
906.6475919897293
 20
1993.424820459659
 30
0.0
 11
814.0470285176261
 21
1993.424820459659
 31
0.0
  0
LINE
  5
76DB
330
A
100
AcDbEntity
  8
0
100
AcDbLine
 10
814.0470285176261
 20
1993.424820459659
 30
0.0
 11
796.6957665263763
 21
2010.626827209492
 31
0.0
  0
LINE
  5
76DC
330
A
100
AcDbEntity
  8
0
100
AcDbLine
 10
796.6957665263763
 20
2010.626827209492
 30
0.0
 11
796.6957665263763
 21
2104.426448920932
 31
0.0
  0
LINE
  5
76DD
330
A
100
AcDbEntity
  8
0
100
AcDbLine
 10
796.6957665263763
 20
2104.426448920932
 30
0.0
 11
814.0470285176261
 21
2121.628455670779
 31
0.0
  0
LINE
  5
76DE
330
A
100
AcDbEntity
  8
0
100
AcDbLine
 10
814.0470285176261
 20
2121.628455670779
 30
0.0
 11
906.6475919897293
 21
2121.628455670779
 31
0.0
  0
LINE
  5
76DF
330
A
100
AcDbEntity
  8
0
100
AcDbLine
 10
906.6475919897293
 20
2121.628455670779
 30
0.0
 11
924.2892516712018
 21
2104.426448920932
 31
0.0
  0
LINE
  5
76E0
330
A
100
AcDbEntity
  8
0
100
AcDbLine
 10
1051.810137393475
 20
2104.426448920932
 30
0.0
 11
1051.810137393475
 21
2010.626827209492
 31
0.0
  0
LINE
  5
76E1
330
A
100
AcDbEntity
  8
0
100
AcDbLine
 10
1051.810137393475
 20
2010.626827209492
 30
0.0
 11
1034.150327856361
 21
1993.424820459659
 31
0.0
  0
LINE
  5
76E2
330
A
100
AcDbEntity
  8
0
100
AcDbLine
 10
1034.150327856361
 20
1993.424820459659
 30
0.0
 11
941.5679142398847
 21
1993.424820459659
 31
0.0
  0
LINE
  5
76E3
330
A
100
AcDbEntity
  8
0
100
AcDbLine
 10
941.5679142398847
 20
1993.424820459659
 30
0.0
 11
924.198502393008
 21
2010.626827209492
 31
0.0
  0
LINE
  5
76E4
330
A
100
AcDbEntity
  8
0
100
AcDbLine
 10
924.198502393008
 20
2010.626827209492
 30
0.0
 11
924.198502393008
 21
2104.426448920932
 31
0.0
  0
LINE
  5
76E5
330
A
100
AcDbEntity
  8
0
100
AcDbLine
 10
924.198502393008
 20
2104.426448920932
 30
0.0
 11
941.5679142398847
 21
2121.628455670779
 31
0.0
  0
LINE
  5
76E6
330
A
100
AcDbEntity
  8
0
100
AcDbLine
 10
941.5679142398847
 20
2121.628455670779
 30
0.0
 11
1034.150327856361
 21
2121.628455670779
 31
0.0
  0
LINE
  5
76E7
330
A
100
AcDbEntity
  8
0
100
AcDbLine
 10
1034.150327856361
 20
2121.628455670779
 30
0.0
 11
1051.810137393475
 21
2104.426448920932
 31
0.0
  0
LINE
  5
76E8
330
A
100
AcDbEntity
  8
0
100
AcDbLine
 10
1179.294723404465
 20
2104.426448920932
 30
0.0
 11
1179.294723404465
 21
2010.626827209492
 31
0.0
  0
LINE
  5
76E9
330
A
100
AcDbEntity
  8
0
100
AcDbLine
 10
1179.294723404465
 20
2010.626827209492
 30
0.0
 11
1161.653063722978
 21
1993.424820459659
 31
0.0
  0
LINE
  5
76EA
330
A
100
AcDbEntity
  8
0
100
AcDbLine
 10
1161.653063722978
 20
1993.424820459659
 30
0.0
 11
1069.070650106516
 21
1993.424820459659
 31
0.0
  0
LINE
  5
76EB
330
A
100
AcDbEntity
  8
0
100
AcDbLine
 10
1069.070650106516
 20
1993.424820459659
 30
0.0
 11
1051.737537970908
 21
2010.626827209492
 31
0.0
  0
LINE
  5
76EC
330
A
100
AcDbEntity
  8
0
100
AcDbLine
 10
1051.737537970908
 20
2010.626827209492
 30
0.0
 11
1051.737537970908
 21
2104.426448920932
 31
0.0
  0
LINE
  5
76ED
330
A
100
AcDbEntity
  8
0
100
AcDbLine
 10
1051.737537970908
 20
2104.426448920932
 30
0.0
 11
1069.070650106516
 21
2121.628455670779
 31
0.0
  0
LINE
  5
76EE
330
A
100
AcDbEntity
  8
0
100
AcDbLine
 10
1069.070650106516
 20
2121.628455670779
 30
0.0
 11
1161.653063722978
 21
2121.628455670779
 31
0.0
  0
LINE
  5
76EF
330
A
100
AcDbEntity
  8
0
100
AcDbLine
 10
1161.653063722978
 20
2121.628455670779
 30
0.0
 11
1179.294723404465
 21
2104.426448920932
 31
0.0
  0
LINE
  5
76F0
330
A
100
AcDbEntity
  8
0
100
AcDbLine
 10
1306.815609126723
 20
2104.426448920932
 30
0.0
 11
1306.815609126723
 21
2010.626827209492
 31
0.0
  0
LINE
  5
76F1
330
A
100
AcDbEntity
  8
0
100
AcDbLine
 10
1306.815609126723
 20
2010.626827209492
 30
0.0
 11
1289.210249156534
 21
1993.424820459659
 31
0.0
  0
LINE
  5
76F2
330
A
100
AcDbEntity
  8
0
100
AcDbLine
 10
1289.210249156534
 20
1993.424820459659
 30
0.0
 11
1196.573385973148
 21
1993.424820459659
 31
0.0
  0
LINE
  5
76F3
330
A
100
AcDbEntity
  8
0
100
AcDbLine
 10
1196.573385973148
 20
1993.424820459659
 30
0.0
 11
1179.258423693181
 21
2010.626827209492
 31
0.0
  0
LINE
  5
76F4
330
A
100
AcDbEntity
  8
0
100
AcDbLine
 10
1179.258423693181
 20
2010.626827209492
 30
0.0
 11
1179.258423693181
 21
2104.426448920932
 31
0.0
  0
LINE
  5
76F5
330
A
100
AcDbEntity
  8
0
100
AcDbLine
 10
1179.258423693181
 20
2104.426448920932
 30
0.0
 11
1196.573385973148
 21
2121.628455670779
 31
0.0
  0
LINE
  5
76F6
330
A
100
AcDbEntity
  8
0
100
AcDbLine
 10
1196.573385973148
 20
2121.628455670779
 30
0.0
 11
1289.210249156534
 21
2121.628455670779
 31
0.0
  0
LINE
  5
76F7
330
A
100
AcDbEntity
  8
0
100
AcDbLine
 10
1289.210249156534
 20
2121.628455670779
 30
0.0
 11
1306.815609126723
 21
2104.426448920932
 31
0.0
  0
LINE
  5
76F8
330
A
100
AcDbEntity
  8
0
100
AcDbLine
 10
1434.354644704623
 20
2104.426448920932
 30
0.0
 11
1434.354644704623
 21
2010.626827209492
 31
0.0
  0
LINE
  5
76F9
330
A
100
AcDbEntity
  8
0
100
AcDbLine
 10
1434.354644704623
 20
2010.626827209492
 30
0.0
 11
1416.694835167509
 21
1993.424820459659
 31
0.0
  0
LINE
  5
76FA
330
A
100
AcDbEntity
  8
0
100
AcDbLine
 10
1416.694835167509
 20
1993.424820459659
 30
0.0
 11
1324.076121839779
 21
1993.424820459659
 31
0.0
  0
LINE
  5
76FB
330
A
100
AcDbEntity
  8
0
100
AcDbLine
 10
1324.076121839779
 20
1993.424820459659
 30
0.0
 11
1306.761159559798
 21
2010.626827209492
 31
0.0
  0
LINE
  5
76FC
330
A
100
AcDbEntity
  8
0
100
AcDbLine
 10
1306.761159559798
 20
2010.626827209492
 30
0.0
 11
1306.761159559798
 21
2104.426448920932
 31
0.0
  0
LINE
  5
76FD
330
A
100
AcDbEntity
  8
0
100
AcDbLine
 10
1306.761159559798
 20
2104.426448920932
 30
0.0
 11
1324.076121839779
 21
2121.628455670779
 31
0.0
  0
LINE
  5
76FE
330
A
100
AcDbEntity
  8
0
100
AcDbLine
 10
1324.076121839779
 20
2121.628455670779
 30
0.0
 11
1416.694835167509
 21
2121.628455670779
 31
0.0
  0
LINE
  5
76FF
330
A
100
AcDbEntity
  8
0
100
AcDbLine
 10
1416.694835167509
 20
2121.628455670779
 30
0.0
 11
1434.354644704623
 21
2104.426448920932
 31
0.0
  0
LINE
  5
7700
330
A
100
AcDbEntity
  8
0
100
AcDbLine
 10
1561.821080859986
 20
2104.426448920932
 30
0.0
 11
1561.821080859986
 21
2010.626827209492
 31
0.0
  0
LINE
  5
7701
330
A
100
AcDbEntity
  8
0
100
AcDbLine
 10
1561.821080859986
 20
2010.626827209492
 30
0.0
 11
1544.179421178514
 21
1993.424820459659
 31
0.0
  0
LINE
  5
7702
330
A
100
AcDbEntity
  8
0
100
AcDbLine
 10
1544.179421178514
 20
1993.424820459659
 30
0.0
 11
1451.61515741768
 21
1993.424820459659
 31
0.0
  0
LINE
  5
7703
330
A
100
AcDbEntity
  8
0
100
AcDbLine
 10
1451.61515741768
 20
1993.424820459659
 30
0.0
 11
1434.263895426444
 21
2010.626827209492
 31
0.0
  0
LINE
  5
7704
330
A
100
AcDbEntity
  8
0
100
AcDbLine
 10
1434.263895426444
 20
2010.626827209492
 30
0.0
 11
1434.263895426444
 21
2104.426448920932
 31
0.0
  0
LINE
  5
7705
330
A
100
AcDbEntity
  8
0
100
AcDbLine
 10
1434.263895426444
 20
2104.426448920932
 30
0.0
 11
1451.61515741768
 21
2121.628455670779
 31
0.0
  0
LINE
  5
7706
330
A
100
AcDbEntity
  8
0
100
AcDbLine
 10
1451.61515741768
 20
2121.628455670779
 30
0.0
 11
1544.179421178514
 21
2121.628455670779
 31
0.0
  0
LINE
  5
7707
330
A
100
AcDbEntity
  8
0
100
AcDbLine
 10
1544.179421178514
 20
2121.628455670779
 30
0.0
 11
1561.821080859986
 21
2104.426448920932
 31
0.0
  0
LINE
  5
7708
330
A
100
AcDbEntity
  8
0
100
AcDbLine
 10
1689.378266293528
 20
2104.426448920932
 30
0.0
 11
1689.378266293528
 21
2010.626827209492
 31
0.0
  0
LINE
  5
7709
330
A
100
AcDbEntity
  8
0
100
AcDbLine
 10
1689.378266293528
 20
2010.626827209492
 30
0.0
 11
1671.736606612055
 21
1993.424820459659
 31
0.0
  0
LINE
  5
770A
330
A
100
AcDbEntity
  8
0
100
AcDbLine
 10
1671.736606612055
 20
1993.424820459659
 30
0.0
 11
1579.136043139953
 21
1993.424820459659
 31
0.0
  0
LINE
  5
770B
330
A
100
AcDbEntity
  8
0
100
AcDbLine
 10
1579.136043139953
 20
1993.424820459659
 30
0.0
 11
1561.784781148703
 21
2010.626827209492
 31
0.0
  0
LINE
  5
770C
330
A
100
AcDbEntity
  8
0
100
AcDbLine
 10
1561.784781148703
 20
2010.626827209492
 30
0.0
 11
1561.784781148703
 21
2104.426448920932
 31
0.0
  0
LINE
  5
770D
330
A
100
AcDbEntity
  8
0
100
AcDbLine
 10
1561.784781148703
 20
2104.426448920932
 30
0.0
 11
1579.136043139953
 21
2121.628455670779
 31
0.0
  0
LINE
  5
770E
330
A
100
AcDbEntity
  8
0
100
AcDbLine
 10
1579.136043139953
 20
2121.628455670779
 30
0.0
 11
1671.736606612055
 21
2121.628455670779
 31
0.0
  0
LINE
  5
770F
330
A
100
AcDbEntity
  8
0
100
AcDbLine
 10
1671.736606612055
 20
2121.628455670779
 30
0.0
 11
1689.378266293528
 21
2104.426448920932
 31
0.0
  0
LINE
  5
7710
330
A
100
AcDbEntity
  8
0
100
AcDbLine
 10
1816.899152015801
 20
2104.426448920932
 30
0.0
 11
1816.899152015801
 21
2010.626827209492
 31
0.0
  0
LINE
  5
7711
330
A
100
AcDbEntity
  8
0
100
AcDbLine
 10
1816.899152015801
 20
2010.626827209492
 30
0.0
 11
1799.239342478687
 21
1993.424820459659
 31
0.0
  0
LINE
  5
7712
330
A
100
AcDbEntity
  8
0
100
AcDbLine
 10
1799.239342478687
 20
1993.424820459659
 30
0.0
 11
1706.63877900657
 21
1993.424820459659
 31
0.0
  0
LINE
  5
7713
330
A
100
AcDbEntity
  8
0
100
AcDbLine
 10
1706.63877900657
 20
1993.424820459659
 30
0.0
 11
1689.287517015335
 21
2010.626827209492
 31
0.0
  0
LINE
  5
7714
330
A
100
AcDbEntity
  8
0
100
AcDbLine
 10
1689.287517015335
 20
2010.626827209492
 30
0.0
 11
1689.287517015335
 21
2104.426448920932
 31
0.0
  0
LINE
  5
7715
330
A
100
AcDbEntity
  8
0
100
AcDbLine
 10
1689.287517015335
 20
2104.426448920932
 30
0.0
 11
1706.63877900657
 21
2121.628455670779
 31
0.0
  0
LINE
  5
7716
330
A
100
AcDbEntity
  8
0
100
AcDbLine
 10
1706.63877900657
 20
2121.628455670779
 30
0.0
 11
1799.239342478687
 21
2121.628455670779
 31
0.0
  0
LINE
  5
7717
330
A
100
AcDbEntity
  8
0
100
AcDbLine
 10
1799.239342478687
 20
2121.628455670779
 30
0.0
 11
1816.899152015801
 21
2104.426448920932
 31
0.0
  0
LINE
  5
7718
330
A
100
AcDbEntity
  8
0
100
AcDbLine
 10
1944.383738026791
 20
2104.426448920932
 30
0.0
 11
1944.383738026791
 21
2010.626827209492
 31
0.0
  0
LINE
  5
7719
330
A
100
AcDbEntity
  8
0
100
AcDbLine
 10
1944.383738026791
 20
2010.626827209492
 30
0.0
 11
1926.742078345304
 21
1993.424820459659
 31
0.0
  0
LINE
  5
771A
330
A
100
AcDbEntity
  8
0
100
AcDbLine
 10
1926.742078345304
 20
1993.424820459659
 30
0.0
 11
1834.141514873216
 21
1993.424820459659
 31
0.0
  0
LINE
  5
771B
330
A
100
AcDbEntity
  8
0
100
AcDbLine
 10
1834.141514873216
 20
1993.424820459659
 30
0.0
 11
1816.826552593235
 21
2010.626827209492
 31
0.0
  0
LINE
  5
771C
330
A
100
AcDbEntity
  8
0
100
AcDbLine
 10
1816.826552593235
 20
2010.626827209492
 30
0.0
 11
1816.826552593235
 21
2104.426448920932
 31
0.0
  0
LINE
  5
771D
330
A
100
AcDbEntity
  8
0
100
AcDbLine
 10
1816.826552593235
 20
2104.426448920932
 30
0.0
 11
1834.141514873216
 21
2121.628455670779
 31
0.0
  0
LINE
  5
771E
330
A
100
AcDbEntity
  8
0
100
AcDbLine
 10
1834.141514873216
 20
2121.628455670779
 30
0.0
 11
1926.742078345304
 21
2121.628455670779
 31
0.0
  0
LINE
  5
771F
330
A
100
AcDbEntity
  8
0
100
AcDbLine
 10
1926.742078345304
 20
2121.628455670779
 30
0.0
 11
1944.383738026791
 21
2104.426448920932
 31
0.0
  0
LINE
  5
7720
330
A
100
AcDbEntity
  8
0
100
AcDbLine
 10
2071.90462374905
 20
2104.426448920932
 30
0.0
 11
2071.90462374905
 21
2010.626827209492
 31
0.0
  0
LINE
  5
7721
330
A
100
AcDbEntity
  8
0
100
AcDbLine
 10
2071.90462374905
 20
2010.626827209492
 30
0.0
 11
2054.262964067578
 21
1993.424820459659
 31
0.0
  0
LINE
  5
7722
330
A
100
AcDbEntity
  8
0
100
AcDbLine
 10
2054.262964067578
 20
1993.424820459659
 30
0.0
 11
1961.662400595474
 21
1993.424820459659
 31
0.0
  0
LINE
  5
7723
330
A
100
AcDbEntity
  8
0
100
AcDbLine
 10
1961.662400595474
 20
1993.424820459659
 30
0.0
 11
1944.347438315508
 21
2010.626827209492
 31
0.0
  0
LINE
  5
7724
330
A
100
AcDbEntity
  8
0
100
AcDbLine
 10
1944.347438315508
 20
2010.626827209492
 30
0.0
 11
1944.347438315508
 21
2104.426448920932
 31
0.0
  0
LINE
  5
7725
330
A
100
AcDbEntity
  8
0
100
AcDbLine
 10
1944.347438315508
 20
2104.426448920932
 30
0.0
 11
1961.662400595474
 21
2121.628455670779
 31
0.0
  0
LINE
  5
7726
330
A
100
AcDbEntity
  8
0
100
AcDbLine
 10
1961.662400595474
 20
2121.628455670779
 30
0.0
 11
2054.262964067578
 21
2121.628455670779
 31
0.0
  0
LINE
  5
7727
330
A
100
AcDbEntity
  8
0
100
AcDbLine
 10
2054.262964067578
 20
2121.628455670779
 30
0.0
 11
2071.90462374905
 21
2104.426448920932
 31
0.0
  0
LINE
  5
7728
330
A
100
AcDbEntity
  8
0
100
AcDbLine
 10
2199.425509471309
 20
2104.426448920932
 30
0.0
 11
2199.425509471309
 21
2010.626827209492
 31
0.0
  0
LINE
  5
7729
330
A
100
AcDbEntity
  8
0
100
AcDbLine
 10
2199.425509471309
 20
2010.626827209492
 30
0.0
 11
2181.783849789836
 21
1993.424820459659
 31
0.0
  0
LINE
  5
772A
330
A
100
AcDbEntity
  8
0
100
AcDbLine
 10
2181.783849789836
 20
1993.424820459659
 30
0.0
 11
2089.165136462106
 21
1993.424820459659
 31
0.0
  0
LINE
  5
772B
330
A
100
AcDbEntity
  8
0
100
AcDbLine
 10
2089.165136462106
 20
1993.424820459659
 30
0.0
 11
2071.850174182139
 21
2010.626827209492
 31
0.0
  0
LINE
  5
772C
330
A
100
AcDbEntity
  8
0
100
AcDbLine
 10
2071.850174182139
 20
2010.626827209492
 30
0.0
 11
2071.850174182139
 21
2104.426448920932
 31
0.0
  0
LINE
  5
772D
330
A
100
AcDbEntity
  8
0
100
AcDbLine
 10
2071.850174182139
 20
2104.426448920932
 30
0.0
 11
2089.165136462106
 21
2121.628455670779
 31
0.0
  0
LINE
  5
772E
330
A
100
AcDbEntity
  8
0
100
AcDbLine
 10
2089.165136462106
 20
2121.628455670779
 30
0.0
 11
2181.783849789836
 21
2121.628455670779
 31
0.0
  0
LINE
  5
772F
330
A
100
AcDbEntity
  8
0
100
AcDbLine
 10
2181.783849789836
 20
2121.628455670779
 30
0.0
 11
2199.425509471309
 21
2104.426448920932
 31
0.0
  0
LINE
  5
7730
330
A
100
AcDbEntity
  8
0
100
AcDbLine
 10
2326.946395193596
 20
2104.426448920932
 30
0.0
 11
2326.946395193596
 21
2010.626827209492
 31
0.0
  0
LINE
  5
7731
330
A
100
AcDbEntity
  8
0
100
AcDbLine
 10
2326.946395193596
 20
2010.626827209492
 30
0.0
 11
2309.268435800841
 21
1993.424820459659
 31
0.0
  0
LINE
  5
7732
330
A
100
AcDbEntity
  8
0
100
AcDbLine
 10
2309.268435800841
 20
1993.424820459659
 30
0.0
 11
2216.704172040006
 21
1993.424820459659
 31
0.0
  0
LINE
  5
7733
330
A
100
AcDbEntity
  8
0
100
AcDbLine
 10
2216.704172040006
 20
1993.424820459659
 30
0.0
 11
2199.352910048771
 21
2010.626827209492
 31
0.0
  0
LINE
  5
7734
330
A
100
AcDbEntity
  8
0
100
AcDbLine
 10
2199.352910048771
 20
2010.626827209492
 30
0.0
 11
2199.352910048771
 21
2104.426448920932
 31
0.0
  0
LINE
  5
7735
330
A
100
AcDbEntity
  8
0
100
AcDbLine
 10
2199.352910048771
 20
2104.426448920932
 30
0.0
 11
2216.704172040006
 21
2121.628455670779
 31
0.0
  0
LINE
  5
7736
330
A
100
AcDbEntity
  8
0
100
AcDbLine
 10
2216.704172040006
 20
2121.628455670779
 30
0.0
 11
2309.268435800841
 21
2121.628455670779
 31
0.0
  0
LINE
  5
7737
330
A
100
AcDbEntity
  8
0
100
AcDbLine
 10
2309.268435800841
 20
2121.628455670779
 30
0.0
 11
2326.946395193596
 21
2104.426448920932
 31
0.0
  0
LINE
  5
7738
330
A
100
AcDbEntity
  8
0
100
AcDbLine
 10
924.2892516712018
 20
1976.222813709811
 30
0.0
 11
924.2892516712018
 21
1882.423191998372
 31
0.0
  0
LINE
  5
7739
330
A
100
AcDbEntity
  8
0
100
AcDbLine
 10
924.2892516712018
 20
1882.423191998372
 30
0.0
 11
906.6475919897293
 21
1865.221185248525
 31
0.0
  0
LINE
  5
773A
330
A
100
AcDbEntity
  8
0
100
AcDbLine
 10
906.6475919897293
 20
1865.221185248525
 30
0.0
 11
814.0470285176261
 21
1865.221185248525
 31
0.0
  0
LINE
  5
773B
330
A
100
AcDbEntity
  8
0
100
AcDbLine
 10
814.0470285176261
 20
1865.221185248525
 30
0.0
 11
796.6957665263763
 21
1882.423191998372
 31
0.0
  0
LINE
  5
773C
330
A
100
AcDbEntity
  8
0
100
AcDbLine
 10
796.6957665263763
 20
1882.423191998372
 30
0.0
 11
796.6957665263763
 21
1976.222813709811
 31
0.0
  0
LINE
  5
773D
330
A
100
AcDbEntity
  8
0
100
AcDbLine
 10
796.6957665263763
 20
1976.222813709811
 30
0.0
 11
814.0470285176261
 21
1993.424820459659
 31
0.0
  0
LINE
  5
773E
330
A
100
AcDbEntity
  8
0
100
AcDbLine
 10
814.0470285176261
 20
1993.424820459659
 30
0.0
 11
906.6475919897293
 21
1993.424820459659
 31
0.0
  0
LINE
  5
773F
330
A
100
AcDbEntity
  8
0
100
AcDbLine
 10
906.6475919897293
 20
1993.424820459659
 30
0.0
 11
924.2892516712018
 21
1976.222813709811
 31
0.0
  0
LINE
  5
7740
330
A
100
AcDbEntity
  8
0
100
AcDbLine
 10
1051.810137393475
 20
1976.222813709811
 30
0.0
 11
1051.810137393475
 21
1882.423191998372
 31
0.0
  0
LINE
  5
7741
330
A
100
AcDbEntity
  8
0
100
AcDbLine
 10
1051.810137393475
 20
1882.423191998372
 30
0.0
 11
1034.150327856361
 21
1865.221185248525
 31
0.0
  0
LINE
  5
7742
330
A
100
AcDbEntity
  8
0
100
AcDbLine
 10
1034.150327856361
 20
1865.221185248525
 30
0.0
 11
941.5679142398847
 21
1865.221185248525
 31
0.0
  0
LINE
  5
7743
330
A
100
AcDbEntity
  8
0
100
AcDbLine
 10
941.5679142398847
 20
1865.221185248525
 30
0.0
 11
924.198502393008
 21
1882.423191998372
 31
0.0
  0
LINE
  5
7744
330
A
100
AcDbEntity
  8
0
100
AcDbLine
 10
924.198502393008
 20
1882.423191998372
 30
0.0
 11
924.198502393008
 21
1976.222813709811
 31
0.0
  0
LINE
  5
7745
330
A
100
AcDbEntity
  8
0
100
AcDbLine
 10
924.198502393008
 20
1976.222813709811
 30
0.0
 11
941.5679142398847
 21
1993.424820459659
 31
0.0
  0
LINE
  5
7746
330
A
100
AcDbEntity
  8
0
100
AcDbLine
 10
941.5679142398847
 20
1993.424820459659
 30
0.0
 11
1034.150327856361
 21
1993.424820459659
 31
0.0
  0
LINE
  5
7747
330
A
100
AcDbEntity
  8
0
100
AcDbLine
 10
1034.150327856361
 20
1993.424820459659
 30
0.0
 11
1051.810137393475
 21
1976.222813709811
 31
0.0
  0
LINE
  5
7748
330
A
100
AcDbEntity
  8
0
100
AcDbLine
 10
1179.294723404465
 20
1976.222813709811
 30
0.0
 11
1179.294723404465
 21
1882.423191998372
 31
0.0
  0
LINE
  5
7749
330
A
100
AcDbEntity
  8
0
100
AcDbLine
 10
1179.294723404465
 20
1882.423191998372
 30
0.0
 11
1161.653063722978
 21
1865.221185248525
 31
0.0
  0
LINE
  5
774A
330
A
100
AcDbEntity
  8
0
100
AcDbLine
 10
1161.653063722978
 20
1865.221185248525
 30
0.0
 11
1069.070650106516
 21
1865.221185248525
 31
0.0
  0
LINE
  5
774B
330
A
100
AcDbEntity
  8
0
100
AcDbLine
 10
1069.070650106516
 20
1865.221185248525
 30
0.0
 11
1051.737537970908
 21
1882.423191998372
 31
0.0
  0
LINE
  5
774C
330
A
100
AcDbEntity
  8
0
100
AcDbLine
 10
1051.737537970908
 20
1882.423191998372
 30
0.0
 11
1051.737537970908
 21
1976.222813709811
 31
0.0
  0
LINE
  5
774D
330
A
100
AcDbEntity
  8
0
100
AcDbLine
 10
1051.737537970908
 20
1976.222813709811
 30
0.0
 11
1069.070650106516
 21
1993.424820459659
 31
0.0
  0
LINE
  5
774E
330
A
100
AcDbEntity
  8
0
100
AcDbLine
 10
1069.070650106516
 20
1993.424820459659
 30
0.0
 11
1161.653063722978
 21
1993.424820459659
 31
0.0
  0
LINE
  5
774F
330
A
100
AcDbEntity
  8
0
100
AcDbLine
 10
1161.653063722978
 20
1993.424820459659
 30
0.0
 11
1179.294723404465
 21
1976.222813709811
 31
0.0
  0
LINE
  5
7750
330
A
100
AcDbEntity
  8
0
100
AcDbLine
 10
1306.815609126723
 20
1976.222813709811
 30
0.0
 11
1306.815609126723
 21
1882.423191998372
 31
0.0
  0
LINE
  5
7751
330
A
100
AcDbEntity
  8
0
100
AcDbLine
 10
1306.815609126723
 20
1882.423191998372
 30
0.0
 11
1289.210249156534
 21
1865.221185248525
 31
0.0
  0
LINE
  5
7752
330
A
100
AcDbEntity
  8
0
100
AcDbLine
 10
1289.210249156534
 20
1865.221185248525
 30
0.0
 11
1196.573385973148
 21
1865.221185248525
 31
0.0
  0
LINE
  5
7753
330
A
100
AcDbEntity
  8
0
100
AcDbLine
 10
1196.573385973148
 20
1865.221185248525
 30
0.0
 11
1179.258423693181
 21
1882.423191998372
 31
0.0
  0
LINE
  5
7754
330
A
100
AcDbEntity
  8
0
100
AcDbLine
 10
1179.258423693181
 20
1882.423191998372
 30
0.0
 11
1179.258423693181
 21
1976.222813709811
 31
0.0
  0
LINE
  5
7755
330
A
100
AcDbEntity
  8
0
100
AcDbLine
 10
1179.258423693181
 20
1976.222813709811
 30
0.0
 11
1196.573385973148
 21
1993.424820459659
 31
0.0
  0
LINE
  5
7756
330
A
100
AcDbEntity
  8
0
100
AcDbLine
 10
1196.573385973148
 20
1993.424820459659
 30
0.0
 11
1289.210249156534
 21
1993.424820459659
 31
0.0
  0
LINE
  5
7757
330
A
100
AcDbEntity
  8
0
100
AcDbLine
 10
1289.210249156534
 20
1993.424820459659
 30
0.0
 11
1306.815609126723
 21
1976.222813709811
 31
0.0
  0
LINE
  5
7758
330
A
100
AcDbEntity
  8
0
100
AcDbLine
 10
1434.354644704623
 20
1976.222813709811
 30
0.0
 11
1434.354644704623
 21
1882.423191998372
 31
0.0
  0
LINE
  5
7759
330
A
100
AcDbEntity
  8
0
100
AcDbLine
 10
1434.354644704623
 20
1882.423191998372
 30
0.0
 11
1416.694835167509
 21
1865.221185248525
 31
0.0
  0
LINE
  5
775A
330
A
100
AcDbEntity
  8
0
100
AcDbLine
 10
1416.694835167509
 20
1865.221185248525
 30
0.0
 11
1324.076121839779
 21
1865.221185248525
 31
0.0
  0
LINE
  5
775B
330
A
100
AcDbEntity
  8
0
100
AcDbLine
 10
1324.076121839779
 20
1865.221185248525
 30
0.0
 11
1306.761159559798
 21
1882.423191998372
 31
0.0
  0
LINE
  5
775C
330
A
100
AcDbEntity
  8
0
100
AcDbLine
 10
1306.761159559798
 20
1882.423191998372
 30
0.0
 11
1306.761159559798
 21
1976.222813709811
 31
0.0
  0
LINE
  5
775D
330
A
100
AcDbEntity
  8
0
100
AcDbLine
 10
1306.761159559798
 20
1976.222813709811
 30
0.0
 11
1324.076121839779
 21
1993.424820459659
 31
0.0
  0
LINE
  5
775E
330
A
100
AcDbEntity
  8
0
100
AcDbLine
 10
1324.076121839779
 20
1993.424820459659
 30
0.0
 11
1416.694835167509
 21
1993.424820459659
 31
0.0
  0
LINE
  5
775F
330
A
100
AcDbEntity
  8
0
100
AcDbLine
 10
1416.694835167509
 20
1993.424820459659
 30
0.0
 11
1434.354644704623
 21
1976.222813709811
 31
0.0
  0
LINE
  5
7760
330
A
100
AcDbEntity
  8
0
100
AcDbLine
 10
1561.821080859986
 20
1976.222813709811
 30
0.0
 11
1561.821080859986
 21
1882.423191998372
 31
0.0
  0
LINE
  5
7761
330
A
100
AcDbEntity
  8
0
100
AcDbLine
 10
1561.821080859986
 20
1882.423191998372
 30
0.0
 11
1544.179421178514
 21
1865.221185248525
 31
0.0
  0
LINE
  5
7762
330
A
100
AcDbEntity
  8
0
100
AcDbLine
 10
1544.179421178514
 20
1865.221185248525
 30
0.0
 11
1451.61515741768
 21
1865.221185248525
 31
0.0
  0
LINE
  5
7763
330
A
100
AcDbEntity
  8
0
100
AcDbLine
 10
1451.61515741768
 20
1865.221185248525
 30
0.0
 11
1434.263895426444
 21
1882.423191998372
 31
0.0
  0
LINE
  5
7764
330
A
100
AcDbEntity
  8
0
100
AcDbLine
 10
1434.263895426444
 20
1882.423191998372
 30
0.0
 11
1434.263895426444
 21
1976.222813709811
 31
0.0
  0
LINE
  5
7765
330
A
100
AcDbEntity
  8
0
100
AcDbLine
 10
1434.263895426444
 20
1976.222813709811
 30
0.0
 11
1451.61515741768
 21
1993.424820459659
 31
0.0
  0
LINE
  5
7766
330
A
100
AcDbEntity
  8
0
100
AcDbLine
 10
1451.61515741768
 20
1993.424820459659
 30
0.0
 11
1544.179421178514
 21
1993.424820459659
 31
0.0
  0
LINE
  5
7767
330
A
100
AcDbEntity
  8
0
100
AcDbLine
 10
1544.179421178514
 20
1993.424820459659
 30
0.0
 11
1561.821080859986
 21
1976.222813709811
 31
0.0
  0
LINE
  5
7768
330
A
100
AcDbEntity
  8
0
100
AcDbLine
 10
1689.378266293528
 20
1976.222813709811
 30
0.0
 11
1689.378266293528
 21
1882.423191998372
 31
0.0
  0
LINE
  5
7769
330
A
100
AcDbEntity
  8
0
100
AcDbLine
 10
1689.378266293528
 20
1882.423191998372
 30
0.0
 11
1671.736606612055
 21
1865.221185248525
 31
0.0
  0
LINE
  5
776A
330
A
100
AcDbEntity
  8
0
100
AcDbLine
 10
1671.736606612055
 20
1865.221185248525
 30
0.0
 11
1579.136043139953
 21
1865.221185248525
 31
0.0
  0
LINE
  5
776B
330
A
100
AcDbEntity
  8
0
100
AcDbLine
 10
1579.136043139953
 20
1865.221185248525
 30
0.0
 11
1561.784781148703
 21
1882.423191998372
 31
0.0
  0
LINE
  5
776C
330
A
100
AcDbEntity
  8
0
100
AcDbLine
 10
1561.784781148703
 20
1882.423191998372
 30
0.0
 11
1561.784781148703
 21
1976.222813709811
 31
0.0
  0
LINE
  5
776D
330
A
100
AcDbEntity
  8
0
100
AcDbLine
 10
1561.784781148703
 20
1976.222813709811
 30
0.0
 11
1579.136043139953
 21
1993.424820459659
 31
0.0
  0
LINE
  5
776E
330
A
100
AcDbEntity
  8
0
100
AcDbLine
 10
1579.136043139953
 20
1993.424820459659
 30
0.0
 11
1671.736606612055
 21
1993.424820459659
 31
0.0
  0
LINE
  5
776F
330
A
100
AcDbEntity
  8
0
100
AcDbLine
 10
1671.736606612055
 20
1993.424820459659
 30
0.0
 11
1689.378266293528
 21
1976.222813709811
 31
0.0
  0
LINE
  5
7770
330
A
100
AcDbEntity
  8
0
100
AcDbLine
 10
1816.899152015801
 20
1976.222813709811
 30
0.0
 11
1816.899152015801
 21
1882.423191998372
 31
0.0
  0
LINE
  5
7771
330
A
100
AcDbEntity
  8
0
100
AcDbLine
 10
1816.899152015801
 20
1882.423191998372
 30
0.0
 11
1799.239342478687
 21
1865.221185248525
 31
0.0
  0
LINE
  5
7772
330
A
100
AcDbEntity
  8
0
100
AcDbLine
 10
1799.239342478687
 20
1865.221185248525
 30
0.0
 11
1706.63877900657
 21
1865.221185248525
 31
0.0
  0
LINE
  5
7773
330
A
100
AcDbEntity
  8
0
100
AcDbLine
 10
1706.63877900657
 20
1865.221185248525
 30
0.0
 11
1689.287517015335
 21
1882.423191998372
 31
0.0
  0
LINE
  5
7774
330
A
100
AcDbEntity
  8
0
100
AcDbLine
 10
1689.287517015335
 20
1882.423191998372
 30
0.0
 11
1689.287517015335
 21
1976.222813709811
 31
0.0
  0
LINE
  5
7775
330
A
100
AcDbEntity
  8
0
100
AcDbLine
 10
1689.287517015335
 20
1976.222813709811
 30
0.0
 11
1706.63877900657
 21
1993.424820459659
 31
0.0
  0
LINE
  5
7776
330
A
100
AcDbEntity
  8
0
100
AcDbLine
 10
1706.63877900657
 20
1993.424820459659
 30
0.0
 11
1799.239342478687
 21
1993.424820459659
 31
0.0
  0
LINE
  5
7777
330
A
100
AcDbEntity
  8
0
100
AcDbLine
 10
1799.239342478687
 20
1993.424820459659
 30
0.0
 11
1816.899152015801
 21
1976.222813709811
 31
0.0
  0
LINE
  5
7778
330
A
100
AcDbEntity
  8
0
100
AcDbLine
 10
1944.383738026791
 20
1976.222813709811
 30
0.0
 11
1944.383738026791
 21
1882.423191998372
 31
0.0
  0
LINE
  5
7779
330
A
100
AcDbEntity
  8
0
100
AcDbLine
 10
1944.383738026791
 20
1882.423191998372
 30
0.0
 11
1926.742078345304
 21
1865.221185248525
 31
0.0
  0
LINE
  5
777A
330
A
100
AcDbEntity
  8
0
100
AcDbLine
 10
1926.742078345304
 20
1865.221185248525
 30
0.0
 11
1834.141514873216
 21
1865.221185248525
 31
0.0
  0
LINE
  5
777B
330
A
100
AcDbEntity
  8
0
100
AcDbLine
 10
1834.141514873216
 20
1865.221185248525
 30
0.0
 11
1816.826552593235
 21
1882.423191998372
 31
0.0
  0
LINE
  5
777C
330
A
100
AcDbEntity
  8
0
100
AcDbLine
 10
1816.826552593235
 20
1882.423191998372
 30
0.0
 11
1816.826552593235
 21
1976.222813709811
 31
0.0
  0
LINE
  5
777D
330
A
100
AcDbEntity
  8
0
100
AcDbLine
 10
1816.826552593235
 20
1976.222813709811
 30
0.0
 11
1834.141514873216
 21
1993.424820459659
 31
0.0
  0
LINE
  5
777E
330
A
100
AcDbEntity
  8
0
100
AcDbLine
 10
1834.141514873216
 20
1993.424820459659
 30
0.0
 11
1926.742078345304
 21
1993.424820459659
 31
0.0
  0
LINE
  5
777F
330
A
100
AcDbEntity
  8
0
100
AcDbLine
 10
1926.742078345304
 20
1993.424820459659
 30
0.0
 11
1944.383738026791
 21
1976.222813709811
 31
0.0
  0
LINE
  5
7780
330
A
100
AcDbEntity
  8
0
100
AcDbLine
 10
2071.90462374905
 20
1976.222813709811
 30
0.0
 11
2071.90462374905
 21
1882.423191998372
 31
0.0
  0
LINE
  5
7781
330
A
100
AcDbEntity
  8
0
100
AcDbLine
 10
2071.90462374905
 20
1882.423191998372
 30
0.0
 11
2054.262964067578
 21
1865.221185248525
 31
0.0
  0
LINE
  5
7782
330
A
100
AcDbEntity
  8
0
100
AcDbLine
 10
2054.262964067578
 20
1865.221185248525
 30
0.0
 11
1961.662400595474
 21
1865.221185248525
 31
0.0
  0
LINE
  5
7783
330
A
100
AcDbEntity
  8
0
100
AcDbLine
 10
1961.662400595474
 20
1865.221185248525
 30
0.0
 11
1944.347438315508
 21
1882.423191998372
 31
0.0
  0
LINE
  5
7784
330
A
100
AcDbEntity
  8
0
100
AcDbLine
 10
1944.347438315508
 20
1882.423191998372
 30
0.0
 11
1944.347438315508
 21
1976.222813709811
 31
0.0
  0
LINE
  5
7785
330
A
100
AcDbEntity
  8
0
100
AcDbLine
 10
1944.347438315508
 20
1976.222813709811
 30
0.0
 11
1961.662400595474
 21
1993.424820459659
 31
0.0
  0
LINE
  5
7786
330
A
100
AcDbEntity
  8
0
100
AcDbLine
 10
1961.662400595474
 20
1993.424820459659
 30
0.0
 11
2054.262964067578
 21
1993.424820459659
 31
0.0
  0
LINE
  5
7787
330
A
100
AcDbEntity
  8
0
100
AcDbLine
 10
2054.262964067578
 20
1993.424820459659
 30
0.0
 11
2071.90462374905
 21
1976.222813709811
 31
0.0
  0
LINE
  5
7788
330
A
100
AcDbEntity
  8
0
100
AcDbLine
 10
2199.425509471309
 20
1976.222813709811
 30
0.0
 11
2199.425509471309
 21
1882.423191998372
 31
0.0
  0
LINE
  5
7789
330
A
100
AcDbEntity
  8
0
100
AcDbLine
 10
2199.425509471309
 20
1882.423191998372
 30
0.0
 11
2181.783849789836
 21
1865.221185248525
 31
0.0
  0
LINE
  5
778A
330
A
100
AcDbEntity
  8
0
100
AcDbLine
 10
2181.783849789836
 20
1865.221185248525
 30
0.0
 11
2089.165136462106
 21
1865.221185248525
 31
0.0
  0
LINE
  5
778B
330
A
100
AcDbEntity
  8
0
100
AcDbLine
 10
2089.165136462106
 20
1865.221185248525
 30
0.0
 11
2071.850174182139
 21
1882.423191998372
 31
0.0
  0
LINE
  5
778C
330
A
100
AcDbEntity
  8
0
100
AcDbLine
 10
2071.850174182139
 20
1882.423191998372
 30
0.0
 11
2071.850174182139
 21
1976.222813709811
 31
0.0
  0
LINE
  5
778D
330
A
100
AcDbEntity
  8
0
100
AcDbLine
 10
2071.850174182139
 20
1976.222813709811
 30
0.0
 11
2089.165136462106
 21
1993.424820459659
 31
0.0
  0
LINE
  5
778E
330
A
100
AcDbEntity
  8
0
100
AcDbLine
 10
2089.165136462106
 20
1993.424820459659
 30
0.0
 11
2181.783849789836
 21
1993.424820459659
 31
0.0
  0
LINE
  5
778F
330
A
100
AcDbEntity
  8
0
100
AcDbLine
 10
2181.783849789836
 20
1993.424820459659
 30
0.0
 11
2199.425509471309
 21
1976.222813709811
 31
0.0
  0
LINE
  5
7790
330
A
100
AcDbEntity
  8
0
100
AcDbLine
 10
2326.946395193596
 20
1976.222813709811
 30
0.0
 11
2326.946395193596
 21
1882.423191998372
 31
0.0
  0
LINE
  5
7791
330
A
100
AcDbEntity
  8
0
100
AcDbLine
 10
2326.946395193596
 20
1882.423191998372
 30
0.0
 11
2309.268435800841
 21
1865.221185248525
 31
0.0
  0
LINE
  5
7792
330
A
100
AcDbEntity
  8
0
100
AcDbLine
 10
2309.268435800841
 20
1865.221185248525
 30
0.0
 11
2216.704172040006
 21
1865.221185248525
 31
0.0
  0
LINE
  5
7793
330
A
100
AcDbEntity
  8
0
100
AcDbLine
 10
2216.704172040006
 20
1865.221185248525
 30
0.0
 11
2199.352910048771
 21
1882.423191998372
 31
0.0
  0
LINE
  5
7794
330
A
100
AcDbEntity
  8
0
100
AcDbLine
 10
2199.352910048771
 20
1882.423191998372
 30
0.0
 11
2199.352910048771
 21
1976.222813709811
 31
0.0
  0
LINE
  5
7795
330
A
100
AcDbEntity
  8
0
100
AcDbLine
 10
2199.352910048771
 20
1976.222813709811
 30
0.0
 11
2216.704172040006
 21
1993.424820459659
 31
0.0
  0
LINE
  5
7796
330
A
100
AcDbEntity
  8
0
100
AcDbLine
 10
2216.704172040006
 20
1993.424820459659
 30
0.0
 11
2309.268435800841
 21
1993.424820459659
 31
0.0
  0
LINE
  5
7797
330
A
100
AcDbEntity
  8
0
100
AcDbLine
 10
2309.268435800841
 20
1993.424820459659
 30
0.0
 11
2326.946395193596
 21
1976.222813709811
 31
0.0
  0
LINE
  5
7798
330
A
100
AcDbEntity
  8
0
100
AcDbLine
 10
924.2892516712018
 20
1848.019178498677
 30
0.0
 11
924.2892516712018
 21
1754.219556787253
 31
0.0
  0
LINE
  5
7799
330
A
100
AcDbEntity
  8
0
100
AcDbLine
 10
924.2892516712018
 20
1754.219556787253
 30
0.0
 11
906.6475919897293
 21
1737.017550037391
 31
0.0
  0
LINE
  5
779A
330
A
100
AcDbEntity
  8
0
100
AcDbLine
 10
906.6475919897293
 20
1737.017550037391
 30
0.0
 11
814.0470285176261
 21
1737.017550037391
 31
0.0
  0
LINE
  5
779B
330
A
100
AcDbEntity
  8
0
100
AcDbLine
 10
814.0470285176261
 20
1737.017550037391
 30
0.0
 11
796.6957665263763
 21
1754.219556787253
 31
0.0
  0
LINE
  5
779C
330
A
100
AcDbEntity
  8
0
100
AcDbLine
 10
796.6957665263763
 20
1754.219556787253
 30
0.0
 11
796.6957665263763
 21
1848.019178498677
 31
0.0
  0
LINE
  5
779D
330
A
100
AcDbEntity
  8
0
100
AcDbLine
 10
796.6957665263763
 20
1848.019178498677
 30
0.0
 11
814.0470285176261
 21
1865.221185248525
 31
0.0
  0
LINE
  5
779E
330
A
100
AcDbEntity
  8
0
100
AcDbLine
 10
814.0470285176261
 20
1865.221185248525
 30
0.0
 11
906.6475919897293
 21
1865.221185248525
 31
0.0
  0
LINE
  5
779F
330
A
100
AcDbEntity
  8
0
100
AcDbLine
 10
906.6475919897293
 20
1865.221185248525
 30
0.0
 11
924.2892516712018
 21
1848.019178498677
 31
0.0
  0
LINE
  5
77A0
330
A
100
AcDbEntity
  8
0
100
AcDbLine
 10
1051.810137393475
 20
1848.019178498677
 30
0.0
 11
1051.810137393475
 21
1754.219556787253
 31
0.0
  0
LINE
  5
77A1
330
A
100
AcDbEntity
  8
0
100
AcDbLine
 10
1051.810137393475
 20
1754.219556787253
 30
0.0
 11
1034.150327856361
 21
1737.017550037391
 31
0.0
  0
LINE
  5
77A2
330
A
100
AcDbEntity
  8
0
100
AcDbLine
 10
1034.150327856361
 20
1737.017550037391
 30
0.0
 11
941.5679142398847
 21
1737.017550037391
 31
0.0
  0
LINE
  5
77A3
330
A
100
AcDbEntity
  8
0
100
AcDbLine
 10
941.5679142398847
 20
1737.017550037391
 30
0.0
 11
924.198502393008
 21
1754.219556787253
 31
0.0
  0
LINE
  5
77A4
330
A
100
AcDbEntity
  8
0
100
AcDbLine
 10
924.198502393008
 20
1754.219556787253
 30
0.0
 11
924.198502393008
 21
1848.019178498677
 31
0.0
  0
LINE
  5
77A5
330
A
100
AcDbEntity
  8
0
100
AcDbLine
 10
924.198502393008
 20
1848.019178498677
 30
0.0
 11
941.5679142398847
 21
1865.221185248525
 31
0.0
  0
LINE
  5
77A6
330
A
100
AcDbEntity
  8
0
100
AcDbLine
 10
941.5679142398847
 20
1865.221185248525
 30
0.0
 11
1034.150327856361
 21
1865.221185248525
 31
0.0
  0
LINE
  5
77A7
330
A
100
AcDbEntity
  8
0
100
AcDbLine
 10
1034.150327856361
 20
1865.221185248525
 30
0.0
 11
1051.810137393475
 21
1848.019178498677
 31
0.0
  0
LINE
  5
77A8
330
A
100
AcDbEntity
  8
0
100
AcDbLine
 10
1179.294723404465
 20
1848.019178498677
 30
0.0
 11
1179.294723404465
 21
1754.219556787253
 31
0.0
  0
LINE
  5
77A9
330
A
100
AcDbEntity
  8
0
100
AcDbLine
 10
1179.294723404465
 20
1754.219556787253
 30
0.0
 11
1161.653063722978
 21
1737.017550037391
 31
0.0
  0
LINE
  5
77AA
330
A
100
AcDbEntity
  8
0
100
AcDbLine
 10
1161.653063722978
 20
1737.017550037391
 30
0.0
 11
1069.070650106516
 21
1737.017550037391
 31
0.0
  0
LINE
  5
77AB
330
A
100
AcDbEntity
  8
0
100
AcDbLine
 10
1069.070650106516
 20
1737.017550037391
 30
0.0
 11
1051.737537970908
 21
1754.219556787253
 31
0.0
  0
LINE
  5
77AC
330
A
100
AcDbEntity
  8
0
100
AcDbLine
 10
1051.737537970908
 20
1754.219556787253
 30
0.0
 11
1051.737537970908
 21
1848.019178498677
 31
0.0
  0
LINE
  5
77AD
330
A
100
AcDbEntity
  8
0
100
AcDbLine
 10
1051.737537970908
 20
1848.019178498677
 30
0.0
 11
1069.070650106516
 21
1865.221185248525
 31
0.0
  0
LINE
  5
77AE
330
A
100
AcDbEntity
  8
0
100
AcDbLine
 10
1069.070650106516
 20
1865.221185248525
 30
0.0
 11
1161.653063722978
 21
1865.221185248525
 31
0.0
  0
LINE
  5
77AF
330
A
100
AcDbEntity
  8
0
100
AcDbLine
 10
1161.653063722978
 20
1865.221185248525
 30
0.0
 11
1179.294723404465
 21
1848.019178498677
 31
0.0
  0
LINE
  5
77B0
330
A
100
AcDbEntity
  8
0
100
AcDbLine
 10
1306.815609126723
 20
1848.019178498677
 30
0.0
 11
1306.815609126723
 21
1754.219556787253
 31
0.0
  0
LINE
  5
77B1
330
A
100
AcDbEntity
  8
0
100
AcDbLine
 10
1306.815609126723
 20
1754.219556787253
 30
0.0
 11
1289.210249156534
 21
1737.017550037391
 31
0.0
  0
LINE
  5
77B2
330
A
100
AcDbEntity
  8
0
100
AcDbLine
 10
1289.210249156534
 20
1737.017550037391
 30
0.0
 11
1196.573385973148
 21
1737.017550037391
 31
0.0
  0
LINE
  5
77B3
330
A
100
AcDbEntity
  8
0
100
AcDbLine
 10
1196.573385973148
 20
1737.017550037391
 30
0.0
 11
1179.258423693181
 21
1754.219556787253
 31
0.0
  0
LINE
  5
77B4
330
A
100
AcDbEntity
  8
0
100
AcDbLine
 10
1179.258423693181
 20
1754.219556787253
 30
0.0
 11
1179.258423693181
 21
1848.019178498677
 31
0.0
  0
LINE
  5
77B5
330
A
100
AcDbEntity
  8
0
100
AcDbLine
 10
1179.258423693181
 20
1848.019178498677
 30
0.0
 11
1196.573385973148
 21
1865.221185248525
 31
0.0
  0
LINE
  5
77B6
330
A
100
AcDbEntity
  8
0
100
AcDbLine
 10
1196.573385973148
 20
1865.221185248525
 30
0.0
 11
1289.210249156534
 21
1865.221185248525
 31
0.0
  0
LINE
  5
77B7
330
A
100
AcDbEntity
  8
0
100
AcDbLine
 10
1289.210249156534
 20
1865.221185248525
 30
0.0
 11
1306.815609126723
 21
1848.019178498677
 31
0.0
  0
LINE
  5
77B8
330
A
100
AcDbEntity
  8
0
100
AcDbLine
 10
1434.354644704623
 20
1848.019178498677
 30
0.0
 11
1434.354644704623
 21
1754.219556787253
 31
0.0
  0
LINE
  5
77B9
330
A
100
AcDbEntity
  8
0
100
AcDbLine
 10
1434.354644704623
 20
1754.219556787253
 30
0.0
 11
1416.694835167509
 21
1737.017550037391
 31
0.0
  0
LINE
  5
77BA
330
A
100
AcDbEntity
  8
0
100
AcDbLine
 10
1416.694835167509
 20
1737.017550037391
 30
0.0
 11
1324.076121839779
 21
1737.017550037391
 31
0.0
  0
LINE
  5
77BB
330
A
100
AcDbEntity
  8
0
100
AcDbLine
 10
1324.076121839779
 20
1737.017550037391
 30
0.0
 11
1306.761159559798
 21
1754.219556787253
 31
0.0
  0
LINE
  5
77BC
330
A
100
AcDbEntity
  8
0
100
AcDbLine
 10
1306.761159559798
 20
1754.219556787253
 30
0.0
 11
1306.761159559798
 21
1848.019178498677
 31
0.0
  0
LINE
  5
77BD
330
A
100
AcDbEntity
  8
0
100
AcDbLine
 10
1306.761159559798
 20
1848.019178498677
 30
0.0
 11
1324.076121839779
 21
1865.221185248525
 31
0.0
  0
LINE
  5
77BE
330
A
100
AcDbEntity
  8
0
100
AcDbLine
 10
1324.076121839779
 20
1865.221185248525
 30
0.0
 11
1416.694835167509
 21
1865.221185248525
 31
0.0
  0
LINE
  5
77BF
330
A
100
AcDbEntity
  8
0
100
AcDbLine
 10
1416.694835167509
 20
1865.221185248525
 30
0.0
 11
1434.354644704623
 21
1848.019178498677
 31
0.0
  0
LINE
  5
77C0
330
A
100
AcDbEntity
  8
0
100
AcDbLine
 10
1561.821080859986
 20
1848.019178498677
 30
0.0
 11
1561.821080859986
 21
1754.219556787253
 31
0.0
  0
LINE
  5
77C1
330
A
100
AcDbEntity
  8
0
100
AcDbLine
 10
1561.821080859986
 20
1754.219556787253
 30
0.0
 11
1544.179421178514
 21
1737.017550037391
 31
0.0
  0
LINE
  5
77C2
330
A
100
AcDbEntity
  8
0
100
AcDbLine
 10
1544.179421178514
 20
1737.017550037391
 30
0.0
 11
1451.61515741768
 21
1737.017550037391
 31
0.0
  0
LINE
  5
77C3
330
A
100
AcDbEntity
  8
0
100
AcDbLine
 10
1451.61515741768
 20
1737.017550037391
 30
0.0
 11
1434.263895426444
 21
1754.219556787253
 31
0.0
  0
LINE
  5
77C4
330
A
100
AcDbEntity
  8
0
100
AcDbLine
 10
1434.263895426444
 20
1754.219556787253
 30
0.0
 11
1434.263895426444
 21
1848.019178498677
 31
0.0
  0
LINE
  5
77C5
330
A
100
AcDbEntity
  8
0
100
AcDbLine
 10
1434.263895426444
 20
1848.019178498677
 30
0.0
 11
1451.61515741768
 21
1865.221185248525
 31
0.0
  0
LINE
  5
77C6
330
A
100
AcDbEntity
  8
0
100
AcDbLine
 10
1451.61515741768
 20
1865.221185248525
 30
0.0
 11
1544.179421178514
 21
1865.221185248525
 31
0.0
  0
LINE
  5
77C7
330
A
100
AcDbEntity
  8
0
100
AcDbLine
 10
1544.179421178514
 20
1865.221185248525
 30
0.0
 11
1561.821080859986
 21
1848.019178498677
 31
0.0
  0
LINE
  5
77C8
330
A
100
AcDbEntity
  8
0
100
AcDbLine
 10
1689.378266293528
 20
1848.019178498677
 30
0.0
 11
1689.378266293528
 21
1754.219556787253
 31
0.0
  0
LINE
  5
77C9
330
A
100
AcDbEntity
  8
0
100
AcDbLine
 10
1689.378266293528
 20
1754.219556787253
 30
0.0
 11
1671.736606612055
 21
1737.017550037391
 31
0.0
  0
LINE
  5
77CA
330
A
100
AcDbEntity
  8
0
100
AcDbLine
 10
1671.736606612055
 20
1737.017550037391
 30
0.0
 11
1579.136043139953
 21
1737.017550037391
 31
0.0
  0
LINE
  5
77CB
330
A
100
AcDbEntity
  8
0
100
AcDbLine
 10
1579.136043139953
 20
1737.017550037391
 30
0.0
 11
1561.784781148703
 21
1754.219556787253
 31
0.0
  0
LINE
  5
77CC
330
A
100
AcDbEntity
  8
0
100
AcDbLine
 10
1561.784781148703
 20
1754.219556787253
 30
0.0
 11
1561.784781148703
 21
1848.019178498677
 31
0.0
  0
LINE
  5
77CD
330
A
100
AcDbEntity
  8
0
100
AcDbLine
 10
1561.784781148703
 20
1848.019178498677
 30
0.0
 11
1579.136043139953
 21
1865.221185248525
 31
0.0
  0
LINE
  5
77CE
330
A
100
AcDbEntity
  8
0
100
AcDbLine
 10
1579.136043139953
 20
1865.221185248525
 30
0.0
 11
1671.736606612055
 21
1865.221185248525
 31
0.0
  0
LINE
  5
77CF
330
A
100
AcDbEntity
  8
0
100
AcDbLine
 10
1671.736606612055
 20
1865.221185248525
 30
0.0
 11
1689.378266293528
 21
1848.019178498677
 31
0.0
  0
LINE
  5
77D0
330
A
100
AcDbEntity
  8
0
100
AcDbLine
 10
1816.899152015801
 20
1848.019178498677
 30
0.0
 11
1816.899152015801
 21
1754.219556787253
 31
0.0
  0
LINE
  5
77D1
330
A
100
AcDbEntity
  8
0
100
AcDbLine
 10
1816.899152015801
 20
1754.219556787253
 30
0.0
 11
1799.239342478687
 21
1737.017550037391
 31
0.0
  0
LINE
  5
77D2
330
A
100
AcDbEntity
  8
0
100
AcDbLine
 10
1799.239342478687
 20
1737.017550037391
 30
0.0
 11
1706.63877900657
 21
1737.017550037391
 31
0.0
  0
LINE
  5
77D3
330
A
100
AcDbEntity
  8
0
100
AcDbLine
 10
1706.63877900657
 20
1737.017550037391
 30
0.0
 11
1689.287517015335
 21
1754.219556787253
 31
0.0
  0
LINE
  5
77D4
330
A
100
AcDbEntity
  8
0
100
AcDbLine
 10
1689.287517015335
 20
1754.219556787253
 30
0.0
 11
1689.287517015335
 21
1848.019178498677
 31
0.0
  0
LINE
  5
77D5
330
A
100
AcDbEntity
  8
0
100
AcDbLine
 10
1689.287517015335
 20
1848.019178498677
 30
0.0
 11
1706.63877900657
 21
1865.221185248525
 31
0.0
  0
LINE
  5
77D6
330
A
100
AcDbEntity
  8
0
100
AcDbLine
 10
1706.63877900657
 20
1865.221185248525
 30
0.0
 11
1799.239342478687
 21
1865.221185248525
 31
0.0
  0
LINE
  5
77D7
330
A
100
AcDbEntity
  8
0
100
AcDbLine
 10
1799.239342478687
 20
1865.221185248525
 30
0.0
 11
1816.899152015801
 21
1848.019178498677
 31
0.0
  0
LINE
  5
77D8
330
A
100
AcDbEntity
  8
0
100
AcDbLine
 10
1944.383738026791
 20
1848.019178498677
 30
0.0
 11
1944.383738026791
 21
1754.219556787253
 31
0.0
  0
LINE
  5
77D9
330
A
100
AcDbEntity
  8
0
100
AcDbLine
 10
1944.383738026791
 20
1754.219556787253
 30
0.0
 11
1926.742078345304
 21
1737.017550037391
 31
0.0
  0
LINE
  5
77DA
330
A
100
AcDbEntity
  8
0
100
AcDbLine
 10
1926.742078345304
 20
1737.017550037391
 30
0.0
 11
1834.141514873216
 21
1737.017550037391
 31
0.0
  0
LINE
  5
77DB
330
A
100
AcDbEntity
  8
0
100
AcDbLine
 10
1834.141514873216
 20
1737.017550037391
 30
0.0
 11
1816.826552593235
 21
1754.219556787253
 31
0.0
  0
LINE
  5
77DC
330
A
100
AcDbEntity
  8
0
100
AcDbLine
 10
1816.826552593235
 20
1754.219556787253
 30
0.0
 11
1816.826552593235
 21
1848.019178498677
 31
0.0
  0
LINE
  5
77DD
330
A
100
AcDbEntity
  8
0
100
AcDbLine
 10
1816.826552593235
 20
1848.019178498677
 30
0.0
 11
1834.141514873216
 21
1865.221185248525
 31
0.0
  0
LINE
  5
77DE
330
A
100
AcDbEntity
  8
0
100
AcDbLine
 10
1834.141514873216
 20
1865.221185248525
 30
0.0
 11
1926.742078345304
 21
1865.221185248525
 31
0.0
  0
LINE
  5
77DF
330
A
100
AcDbEntity
  8
0
100
AcDbLine
 10
1926.742078345304
 20
1865.221185248525
 30
0.0
 11
1944.383738026791
 21
1848.019178498677
 31
0.0
  0
LINE
  5
77E0
330
A
100
AcDbEntity
  8
0
100
AcDbLine
 10
2071.90462374905
 20
1848.019178498677
 30
0.0
 11
2071.90462374905
 21
1754.219556787253
 31
0.0
  0
LINE
  5
77E1
330
A
100
AcDbEntity
  8
0
100
AcDbLine
 10
2071.90462374905
 20
1754.219556787253
 30
0.0
 11
2054.262964067578
 21
1737.017550037391
 31
0.0
  0
LINE
  5
77E2
330
A
100
AcDbEntity
  8
0
100
AcDbLine
 10
2054.262964067578
 20
1737.017550037391
 30
0.0
 11
1961.662400595474
 21
1737.017550037391
 31
0.0
  0
LINE
  5
77E3
330
A
100
AcDbEntity
  8
0
100
AcDbLine
 10
1961.662400595474
 20
1737.017550037391
 30
0.0
 11
1944.347438315508
 21
1754.219556787253
 31
0.0
  0
LINE
  5
77E4
330
A
100
AcDbEntity
  8
0
100
AcDbLine
 10
1944.347438315508
 20
1754.219556787253
 30
0.0
 11
1944.347438315508
 21
1848.019178498677
 31
0.0
  0
LINE
  5
77E5
330
A
100
AcDbEntity
  8
0
100
AcDbLine
 10
1944.347438315508
 20
1848.019178498677
 30
0.0
 11
1961.662400595474
 21
1865.221185248525
 31
0.0
  0
LINE
  5
77E6
330
A
100
AcDbEntity
  8
0
100
AcDbLine
 10
1961.662400595474
 20
1865.221185248525
 30
0.0
 11
2054.262964067578
 21
1865.221185248525
 31
0.0
  0
LINE
  5
77E7
330
A
100
AcDbEntity
  8
0
100
AcDbLine
 10
2054.262964067578
 20
1865.221185248525
 30
0.0
 11
2071.90462374905
 21
1848.019178498677
 31
0.0
  0
LINE
  5
77E8
330
A
100
AcDbEntity
  8
0
100
AcDbLine
 10
2199.425509471309
 20
1848.019178498677
 30
0.0
 11
2199.425509471309
 21
1754.219556787253
 31
0.0
  0
LINE
  5
77E9
330
A
100
AcDbEntity
  8
0
100
AcDbLine
 10
2199.425509471309
 20
1754.219556787253
 30
0.0
 11
2181.783849789836
 21
1737.017550037391
 31
0.0
  0
LINE
  5
77EA
330
A
100
AcDbEntity
  8
0
100
AcDbLine
 10
2181.783849789836
 20
1737.017550037391
 30
0.0
 11
2089.165136462106
 21
1737.017550037391
 31
0.0
  0
LINE
  5
77EB
330
A
100
AcDbEntity
  8
0
100
AcDbLine
 10
2089.165136462106
 20
1737.017550037391
 30
0.0
 11
2071.850174182139
 21
1754.219556787253
 31
0.0
  0
LINE
  5
77EC
330
A
100
AcDbEntity
  8
0
100
AcDbLine
 10
2071.850174182139
 20
1754.219556787253
 30
0.0
 11
2071.850174182139
 21
1848.019178498677
 31
0.0
  0
LINE
  5
77ED
330
A
100
AcDbEntity
  8
0
100
AcDbLine
 10
2071.850174182139
 20
1848.019178498677
 30
0.0
 11
2089.165136462106
 21
1865.221185248525
 31
0.0
  0
LINE
  5
77EE
330
A
100
AcDbEntity
  8
0
100
AcDbLine
 10
2089.165136462106
 20
1865.221185248525
 30
0.0
 11
2181.783849789836
 21
1865.221185248525
 31
0.0
  0
LINE
  5
77EF
330
A
100
AcDbEntity
  8
0
100
AcDbLine
 10
2181.783849789836
 20
1865.221185248525
 30
0.0
 11
2199.425509471309
 21
1848.019178498677
 31
0.0
  0
LINE
  5
77F0
330
A
100
AcDbEntity
  8
0
100
AcDbLine
 10
2326.946395193596
 20
1848.019178498677
 30
0.0
 11
2326.946395193596
 21
1754.219556787253
 31
0.0
  0
LINE
  5
77F1
330
A
100
AcDbEntity
  8
0
100
AcDbLine
 10
2326.946395193596
 20
1754.219556787253
 30
0.0
 11
2309.268435800841
 21
1737.017550037391
 31
0.0
  0
LINE
  5
77F2
330
A
100
AcDbEntity
  8
0
100
AcDbLine
 10
2309.268435800841
 20
1737.017550037391
 30
0.0
 11
2216.704172040006
 21
1737.017550037391
 31
0.0
  0
LINE
  5
77F3
330
A
100
AcDbEntity
  8
0
100
AcDbLine
 10
2216.704172040006
 20
1737.017550037391
 30
0.0
 11
2199.352910048771
 21
1754.219556787253
 31
0.0
  0
LINE
  5
77F4
330
A
100
AcDbEntity
  8
0
100
AcDbLine
 10
2199.352910048771
 20
1754.219556787253
 30
0.0
 11
2199.352910048771
 21
1848.019178498677
 31
0.0
  0
LINE
  5
77F5
330
A
100
AcDbEntity
  8
0
100
AcDbLine
 10
2199.352910048771
 20
1848.019178498677
 30
0.0
 11
2216.704172040006
 21
1865.221185248525
 31
0.0
  0
LINE
  5
77F6
330
A
100
AcDbEntity
  8
0
100
AcDbLine
 10
2216.704172040006
 20
1865.221185248525
 30
0.0
 11
2309.268435800841
 21
1865.221185248525
 31
0.0
  0
LINE
  5
77F7
330
A
100
AcDbEntity
  8
0
100
AcDbLine
 10
2309.268435800841
 20
1865.221185248525
 30
0.0
 11
2326.946395193596
 21
1848.019178498677
 31
0.0
  0
LINE
  5
77F8
330
A
100
AcDbEntity
  8
0
100
AcDbLine
 10
924.2892516712018
 20
1719.797511833939
 30
0.0
 11
924.2892516712018
 21
1626.015921576118
 31
0.0
  0
LINE
  5
77F9
330
A
100
AcDbEntity
  8
0
100
AcDbLine
 10
924.2892516712018
 20
1626.015921576118
 30
0.0
 11
906.6475919897293
 21
1608.813914826271
 31
0.0
  0
LINE
  5
77FA
330
A
100
AcDbEntity
  8
0
100
AcDbLine
 10
906.6475919897293
 20
1608.813914826271
 30
0.0
 11
814.0470285176261
 21
1608.813914826271
 31
0.0
  0
LINE
  5
77FB
330
A
100
AcDbEntity
  8
0
100
AcDbLine
 10
814.0470285176261
 20
1608.813914826271
 30
0.0
 11
796.6957665263763
 21
1626.015921576118
 31
0.0
  0
LINE
  5
77FC
330
A
100
AcDbEntity
  8
0
100
AcDbLine
 10
796.6957665263763
 20
1626.015921576118
 30
0.0
 11
796.6957665263763
 21
1719.797511833939
 31
0.0
  0
LINE
  5
77FD
330
A
100
AcDbEntity
  8
0
100
AcDbLine
 10
796.6957665263763
 20
1719.797511833939
 30
0.0
 11
814.0470285176261
 21
1737.017550037391
 31
0.0
  0
LINE
  5
77FE
330
A
100
AcDbEntity
  8
0
100
AcDbLine
 10
814.0470285176261
 20
1737.017550037391
 30
0.0
 11
906.6475919897293
 21
1737.017550037391
 31
0.0
  0
LINE
  5
77FF
330
A
100
AcDbEntity
  8
0
100
AcDbLine
 10
906.6475919897293
 20
1737.017550037391
 30
0.0
 11
924.2892516712018
 21
1719.797511833939
 31
0.0
  0
LINE
  5
7800
330
A
100
AcDbEntity
  8
0
100
AcDbLine
 10
1051.810137393475
 20
1719.797511833939
 30
0.0
 11
1051.810137393475
 21
1626.015921576118
 31
0.0
  0
LINE
  5
7801
330
A
100
AcDbEntity
  8
0
100
AcDbLine
 10
1051.810137393475
 20
1626.015921576118
 30
0.0
 11
1034.150327856361
 21
1608.813914826271
 31
0.0
  0
LINE
  5
7802
330
A
100
AcDbEntity
  8
0
100
AcDbLine
 10
1034.150327856361
 20
1608.813914826271
 30
0.0
 11
941.5679142398847
 21
1608.813914826271
 31
0.0
  0
LINE
  5
7803
330
A
100
AcDbEntity
  8
0
100
AcDbLine
 10
941.5679142398847
 20
1608.813914826271
 30
0.0
 11
924.198502393008
 21
1626.015921576118
 31
0.0
  0
LINE
  5
7804
330
A
100
AcDbEntity
  8
0
100
AcDbLine
 10
924.198502393008
 20
1626.015921576118
 30
0.0
 11
924.198502393008
 21
1719.797511833939
 31
0.0
  0
LINE
  5
7805
330
A
100
AcDbEntity
  8
0
100
AcDbLine
 10
924.198502393008
 20
1719.797511833939
 30
0.0
 11
941.5679142398847
 21
1737.017550037391
 31
0.0
  0
LINE
  5
7806
330
A
100
AcDbEntity
  8
0
100
AcDbLine
 10
941.5679142398847
 20
1737.017550037391
 30
0.0
 11
1034.150327856361
 21
1737.017550037391
 31
0.0
  0
LINE
  5
7807
330
A
100
AcDbEntity
  8
0
100
AcDbLine
 10
1034.150327856361
 20
1737.017550037391
 30
0.0
 11
1051.810137393475
 21
1719.797511833939
 31
0.0
  0
LINE
  5
7808
330
A
100
AcDbEntity
  8
0
100
AcDbLine
 10
1179.294723404465
 20
1719.797511833939
 30
0.0
 11
1179.294723404465
 21
1626.015921576118
 31
0.0
  0
LINE
  5
7809
330
A
100
AcDbEntity
  8
0
100
AcDbLine
 10
1179.294723404465
 20
1626.015921576118
 30
0.0
 11
1161.653063722978
 21
1608.813914826271
 31
0.0
  0
LINE
  5
780A
330
A
100
AcDbEntity
  8
0
100
AcDbLine
 10
1161.653063722978
 20
1608.813914826271
 30
0.0
 11
1069.070650106516
 21
1608.813914826271
 31
0.0
  0
LINE
  5
780B
330
A
100
AcDbEntity
  8
0
100
AcDbLine
 10
1069.070650106516
 20
1608.813914826271
 30
0.0
 11
1051.737537970908
 21
1626.015921576118
 31
0.0
  0
LINE
  5
780C
330
A
100
AcDbEntity
  8
0
100
AcDbLine
 10
1051.737537970908
 20
1626.015921576118
 30
0.0
 11
1051.737537970908
 21
1719.797511833939
 31
0.0
  0
LINE
  5
780D
330
A
100
AcDbEntity
  8
0
100
AcDbLine
 10
1051.737537970908
 20
1719.797511833939
 30
0.0
 11
1069.070650106516
 21
1737.017550037391
 31
0.0
  0
LINE
  5
780E
330
A
100
AcDbEntity
  8
0
100
AcDbLine
 10
1069.070650106516
 20
1737.017550037391
 30
0.0
 11
1161.653063722978
 21
1737.017550037391
 31
0.0
  0
LINE
  5
780F
330
A
100
AcDbEntity
  8
0
100
AcDbLine
 10
1161.653063722978
 20
1737.017550037391
 30
0.0
 11
1179.294723404465
 21
1719.797511833939
 31
0.0
  0
LINE
  5
7810
330
A
100
AcDbEntity
  8
0
100
AcDbLine
 10
1306.815609126723
 20
1719.797511833939
 30
0.0
 11
1306.815609126723
 21
1626.015921576118
 31
0.0
  0
LINE
  5
7811
330
A
100
AcDbEntity
  8
0
100
AcDbLine
 10
1306.815609126723
 20
1626.015921576118
 30
0.0
 11
1289.210249156534
 21
1608.813914826271
 31
0.0
  0
LINE
  5
7812
330
A
100
AcDbEntity
  8
0
100
AcDbLine
 10
1289.210249156534
 20
1608.813914826271
 30
0.0
 11
1196.573385973148
 21
1608.813914826271
 31
0.0
  0
LINE
  5
7813
330
A
100
AcDbEntity
  8
0
100
AcDbLine
 10
1196.573385973148
 20
1608.813914826271
 30
0.0
 11
1179.258423693181
 21
1626.015921576118
 31
0.0
  0
LINE
  5
7814
330
A
100
AcDbEntity
  8
0
100
AcDbLine
 10
1179.258423693181
 20
1626.015921576118
 30
0.0
 11
1179.258423693181
 21
1719.797511833939
 31
0.0
  0
LINE
  5
7815
330
A
100
AcDbEntity
  8
0
100
AcDbLine
 10
1179.258423693181
 20
1719.797511833939
 30
0.0
 11
1196.573385973148
 21
1737.017550037391
 31
0.0
  0
LINE
  5
7816
330
A
100
AcDbEntity
  8
0
100
AcDbLine
 10
1196.573385973148
 20
1737.017550037391
 30
0.0
 11
1289.210249156534
 21
1737.017550037391
 31
0.0
  0
LINE
  5
7817
330
A
100
AcDbEntity
  8
0
100
AcDbLine
 10
1289.210249156534
 20
1737.017550037391
 30
0.0
 11
1306.815609126723
 21
1719.797511833939
 31
0.0
  0
LINE
  5
7818
330
A
100
AcDbEntity
  8
0
100
AcDbLine
 10
1434.354644704623
 20
1719.797511833939
 30
0.0
 11
1434.354644704623
 21
1626.015921576118
 31
0.0
  0
LINE
  5
7819
330
A
100
AcDbEntity
  8
0
100
AcDbLine
 10
1434.354644704623
 20
1626.015921576118
 30
0.0
 11
1416.694835167509
 21
1608.813914826271
 31
0.0
  0
LINE
  5
781A
330
A
100
AcDbEntity
  8
0
100
AcDbLine
 10
1416.694835167509
 20
1608.813914826271
 30
0.0
 11
1324.076121839779
 21
1608.813914826271
 31
0.0
  0
LINE
  5
781B
330
A
100
AcDbEntity
  8
0
100
AcDbLine
 10
1324.076121839779
 20
1608.813914826271
 30
0.0
 11
1306.761159559798
 21
1626.015921576118
 31
0.0
  0
LINE
  5
781C
330
A
100
AcDbEntity
  8
0
100
AcDbLine
 10
1306.761159559798
 20
1626.015921576118
 30
0.0
 11
1306.761159559798
 21
1719.797511833939
 31
0.0
  0
LINE
  5
781D
330
A
100
AcDbEntity
  8
0
100
AcDbLine
 10
1306.761159559798
 20
1719.797511833939
 30
0.0
 11
1324.076121839779
 21
1737.017550037391
 31
0.0
  0
LINE
  5
781E
330
A
100
AcDbEntity
  8
0
100
AcDbLine
 10
1324.076121839779
 20
1737.017550037391
 30
0.0
 11
1416.694835167509
 21
1737.017550037391
 31
0.0
  0
LINE
  5
781F
330
A
100
AcDbEntity
  8
0
100
AcDbLine
 10
1416.694835167509
 20
1737.017550037391
 30
0.0
 11
1434.354644704623
 21
1719.797511833939
 31
0.0
  0
LINE
  5
7820
330
A
100
AcDbEntity
  8
0
100
AcDbLine
 10
1561.821080859986
 20
1719.797511833939
 30
0.0
 11
1561.821080859986
 21
1626.015921576118
 31
0.0
  0
LINE
  5
7821
330
A
100
AcDbEntity
  8
0
100
AcDbLine
 10
1561.821080859986
 20
1626.015921576118
 30
0.0
 11
1544.179421178514
 21
1608.813914826271
 31
0.0
  0
LINE
  5
7822
330
A
100
AcDbEntity
  8
0
100
AcDbLine
 10
1544.179421178514
 20
1608.813914826271
 30
0.0
 11
1451.61515741768
 21
1608.813914826271
 31
0.0
  0
LINE
  5
7823
330
A
100
AcDbEntity
  8
0
100
AcDbLine
 10
1451.61515741768
 20
1608.813914826271
 30
0.0
 11
1434.263895426444
 21
1626.015921576118
 31
0.0
  0
LINE
  5
7824
330
A
100
AcDbEntity
  8
0
100
AcDbLine
 10
1434.263895426444
 20
1626.015921576118
 30
0.0
 11
1434.263895426444
 21
1719.797511833939
 31
0.0
  0
LINE
  5
7825
330
A
100
AcDbEntity
  8
0
100
AcDbLine
 10
1434.263895426444
 20
1719.797511833939
 30
0.0
 11
1451.61515741768
 21
1737.017550037391
 31
0.0
  0
LINE
  5
7826
330
A
100
AcDbEntity
  8
0
100
AcDbLine
 10
1451.61515741768
 20
1737.017550037391
 30
0.0
 11
1544.179421178514
 21
1737.017550037391
 31
0.0
  0
LINE
  5
7827
330
A
100
AcDbEntity
  8
0
100
AcDbLine
 10
1544.179421178514
 20
1737.017550037391
 30
0.0
 11
1561.821080859986
 21
1719.797511833939
 31
0.0
  0
LINE
  5
7828
330
A
100
AcDbEntity
  8
0
100
AcDbLine
 10
1689.378266293528
 20
1719.797511833939
 30
0.0
 11
1689.378266293528
 21
1626.015921576118
 31
0.0
  0
LINE
  5
7829
330
A
100
AcDbEntity
  8
0
100
AcDbLine
 10
1689.378266293528
 20
1626.015921576118
 30
0.0
 11
1671.736606612055
 21
1608.813914826271
 31
0.0
  0
LINE
  5
782A
330
A
100
AcDbEntity
  8
0
100
AcDbLine
 10
1671.736606612055
 20
1608.813914826271
 30
0.0
 11
1579.136043139953
 21
1608.813914826271
 31
0.0
  0
LINE
  5
782B
330
A
100
AcDbEntity
  8
0
100
AcDbLine
 10
1579.136043139953
 20
1608.813914826271
 30
0.0
 11
1561.784781148703
 21
1626.015921576118
 31
0.0
  0
LINE
  5
782C
330
A
100
AcDbEntity
  8
0
100
AcDbLine
 10
1561.784781148703
 20
1626.015921576118
 30
0.0
 11
1561.784781148703
 21
1719.797511833939
 31
0.0
  0
LINE
  5
782D
330
A
100
AcDbEntity
  8
0
100
AcDbLine
 10
1561.784781148703
 20
1719.797511833939
 30
0.0
 11
1579.136043139953
 21
1737.017550037391
 31
0.0
  0
LINE
  5
782E
330
A
100
AcDbEntity
  8
0
100
AcDbLine
 10
1579.136043139953
 20
1737.017550037391
 30
0.0
 11
1671.736606612055
 21
1737.017550037391
 31
0.0
  0
LINE
  5
782F
330
A
100
AcDbEntity
  8
0
100
AcDbLine
 10
1671.736606612055
 20
1737.017550037391
 30
0.0
 11
1689.378266293528
 21
1719.797511833939
 31
0.0
  0
LINE
  5
7830
330
A
100
AcDbEntity
  8
0
100
AcDbLine
 10
1816.899152015801
 20
1719.797511833939
 30
0.0
 11
1816.899152015801
 21
1626.015921576118
 31
0.0
  0
LINE
  5
7831
330
A
100
AcDbEntity
  8
0
100
AcDbLine
 10
1816.899152015801
 20
1626.015921576118
 30
0.0
 11
1799.239342478687
 21
1608.813914826271
 31
0.0
  0
LINE
  5
7832
330
A
100
AcDbEntity
  8
0
100
AcDbLine
 10
1799.239342478687
 20
1608.813914826271
 30
0.0
 11
1706.63877900657
 21
1608.813914826271
 31
0.0
  0
LINE
  5
7833
330
A
100
AcDbEntity
  8
0
100
AcDbLine
 10
1706.63877900657
 20
1608.813914826271
 30
0.0
 11
1689.287517015335
 21
1626.015921576118
 31
0.0
  0
LINE
  5
7834
330
A
100
AcDbEntity
  8
0
100
AcDbLine
 10
1689.287517015335
 20
1626.015921576118
 30
0.0
 11
1689.287517015335
 21
1719.797511833939
 31
0.0
  0
LINE
  5
7835
330
A
100
AcDbEntity
  8
0
100
AcDbLine
 10
1689.287517015335
 20
1719.797511833939
 30
0.0
 11
1706.63877900657
 21
1737.017550037391
 31
0.0
  0
LINE
  5
7836
330
A
100
AcDbEntity
  8
0
100
AcDbLine
 10
1706.63877900657
 20
1737.017550037391
 30
0.0
 11
1799.239342478687
 21
1737.017550037391
 31
0.0
  0
LINE
  5
7837
330
A
100
AcDbEntity
  8
0
100
AcDbLine
 10
1799.239342478687
 20
1737.017550037391
 30
0.0
 11
1816.899152015801
 21
1719.797511833939
 31
0.0
  0
LINE
  5
7838
330
A
100
AcDbEntity
  8
0
100
AcDbLine
 10
1944.383738026791
 20
1719.797511833939
 30
0.0
 11
1944.383738026791
 21
1626.015921576118
 31
0.0
  0
LINE
  5
7839
330
A
100
AcDbEntity
  8
0
100
AcDbLine
 10
1944.383738026791
 20
1626.015921576118
 30
0.0
 11
1926.742078345304
 21
1608.813914826271
 31
0.0
  0
LINE
  5
783A
330
A
100
AcDbEntity
  8
0
100
AcDbLine
 10
1926.742078345304
 20
1608.813914826271
 30
0.0
 11
1834.141514873216
 21
1608.813914826271
 31
0.0
  0
LINE
  5
783B
330
A
100
AcDbEntity
  8
0
100
AcDbLine
 10
1834.141514873216
 20
1608.813914826271
 30
0.0
 11
1816.826552593235
 21
1626.015921576118
 31
0.0
  0
LINE
  5
783C
330
A
100
AcDbEntity
  8
0
100
AcDbLine
 10
1816.826552593235
 20
1626.015921576118
 30
0.0
 11
1816.826552593235
 21
1719.797511833939
 31
0.0
  0
LINE
  5
783D
330
A
100
AcDbEntity
  8
0
100
AcDbLine
 10
1816.826552593235
 20
1719.797511833939
 30
0.0
 11
1834.141514873216
 21
1737.017550037391
 31
0.0
  0
LINE
  5
783E
330
A
100
AcDbEntity
  8
0
100
AcDbLine
 10
1834.141514873216
 20
1737.017550037391
 30
0.0
 11
1926.742078345304
 21
1737.017550037391
 31
0.0
  0
LINE
  5
783F
330
A
100
AcDbEntity
  8
0
100
AcDbLine
 10
1926.742078345304
 20
1737.017550037391
 30
0.0
 11
1944.383738026791
 21
1719.797511833939
 31
0.0
  0
LINE
  5
7840
330
A
100
AcDbEntity
  8
0
100
AcDbLine
 10
2071.90462374905
 20
1719.797511833939
 30
0.0
 11
2071.90462374905
 21
1626.015921576118
 31
0.0
  0
LINE
  5
7841
330
A
100
AcDbEntity
  8
0
100
AcDbLine
 10
2071.90462374905
 20
1626.015921576118
 30
0.0
 11
2054.262964067578
 21
1608.813914826271
 31
0.0
  0
LINE
  5
7842
330
A
100
AcDbEntity
  8
0
100
AcDbLine
 10
2054.262964067578
 20
1608.813914826271
 30
0.0
 11
1961.662400595474
 21
1608.813914826271
 31
0.0
  0
LINE
  5
7843
330
A
100
AcDbEntity
  8
0
100
AcDbLine
 10
1961.662400595474
 20
1608.813914826271
 30
0.0
 11
1944.347438315508
 21
1626.015921576118
 31
0.0
  0
LINE
  5
7844
330
A
100
AcDbEntity
  8
0
100
AcDbLine
 10
1944.347438315508
 20
1626.015921576118
 30
0.0
 11
1944.347438315508
 21
1719.797511833939
 31
0.0
  0
LINE
  5
7845
330
A
100
AcDbEntity
  8
0
100
AcDbLine
 10
1944.347438315508
 20
1719.797511833939
 30
0.0
 11
1961.662400595474
 21
1737.017550037391
 31
0.0
  0
LINE
  5
7846
330
A
100
AcDbEntity
  8
0
100
AcDbLine
 10
1961.662400595474
 20
1737.017550037391
 30
0.0
 11
2054.262964067578
 21
1737.017550037391
 31
0.0
  0
LINE
  5
7847
330
A
100
AcDbEntity
  8
0
100
AcDbLine
 10
2054.262964067578
 20
1737.017550037391
 30
0.0
 11
2071.90462374905
 21
1719.797511833939
 31
0.0
  0
LINE
  5
7848
330
A
100
AcDbEntity
  8
0
100
AcDbLine
 10
2199.425509471309
 20
1719.797511833939
 30
0.0
 11
2199.425509471309
 21
1626.015921576118
 31
0.0
  0
LINE
  5
7849
330
A
100
AcDbEntity
  8
0
100
AcDbLine
 10
2199.425509471309
 20
1626.015921576118
 30
0.0
 11
2181.783849789836
 21
1608.813914826271
 31
0.0
  0
LINE
  5
784A
330
A
100
AcDbEntity
  8
0
100
AcDbLine
 10
2181.783849789836
 20
1608.813914826271
 30
0.0
 11
2089.165136462106
 21
1608.813914826271
 31
0.0
  0
LINE
  5
784B
330
A
100
AcDbEntity
  8
0
100
AcDbLine
 10
2089.165136462106
 20
1608.813914826271
 30
0.0
 11
2071.850174182139
 21
1626.015921576118
 31
0.0
  0
LINE
  5
784C
330
A
100
AcDbEntity
  8
0
100
AcDbLine
 10
2071.850174182139
 20
1626.015921576118
 30
0.0
 11
2071.850174182139
 21
1719.797511833939
 31
0.0
  0
LINE
  5
784D
330
A
100
AcDbEntity
  8
0
100
AcDbLine
 10
2071.850174182139
 20
1719.797511833939
 30
0.0
 11
2089.165136462106
 21
1737.017550037391
 31
0.0
  0
LINE
  5
784E
330
A
100
AcDbEntity
  8
0
100
AcDbLine
 10
2089.165136462106
 20
1737.017550037391
 30
0.0
 11
2181.783849789836
 21
1737.017550037391
 31
0.0
  0
LINE
  5
784F
330
A
100
AcDbEntity
  8
0
100
AcDbLine
 10
2181.783849789836
 20
1737.017550037391
 30
0.0
 11
2199.425509471309
 21
1719.797511833939
 31
0.0
  0
LINE
  5
7850
330
A
100
AcDbEntity
  8
0
100
AcDbLine
 10
2326.946395193596
 20
1719.797511833939
 30
0.0
 11
2326.946395193596
 21
1626.015921576118
 31
0.0
  0
LINE
  5
7851
330
A
100
AcDbEntity
  8
0
100
AcDbLine
 10
2326.946395193596
 20
1626.015921576118
 30
0.0
 11
2309.268435800841
 21
1608.813914826271
 31
0.0
  0
LINE
  5
7852
330
A
100
AcDbEntity
  8
0
100
AcDbLine
 10
2309.268435800841
 20
1608.813914826271
 30
0.0
 11
2216.704172040006
 21
1608.813914826271
 31
0.0
  0
LINE
  5
7853
330
A
100
AcDbEntity
  8
0
100
AcDbLine
 10
2216.704172040006
 20
1608.813914826271
 30
0.0
 11
2199.352910048771
 21
1626.015921576118
 31
0.0
  0
LINE
  5
7854
330
A
100
AcDbEntity
  8
0
100
AcDbLine
 10
2199.352910048771
 20
1626.015921576118
 30
0.0
 11
2199.352910048771
 21
1719.797511833939
 31
0.0
  0
LINE
  5
7855
330
A
100
AcDbEntity
  8
0
100
AcDbLine
 10
2199.352910048771
 20
1719.797511833939
 30
0.0
 11
2216.704172040006
 21
1737.017550037391
 31
0.0
  0
LINE
  5
7856
330
A
100
AcDbEntity
  8
0
100
AcDbLine
 10
2216.704172040006
 20
1737.017550037391
 30
0.0
 11
2309.268435800841
 21
1737.017550037391
 31
0.0
  0
LINE
  5
7857
330
A
100
AcDbEntity
  8
0
100
AcDbLine
 10
2309.268435800841
 20
1737.017550037391
 30
0.0
 11
2326.946395193596
 21
1719.797511833939
 31
0.0
  0
LINE
  5
8112
330
A
100
AcDbEntity
  8
0
100
AcDbLine
 10
2658.466279705098
 20
1594.388751933318
 30
0.0
 11
2658.466279705098
 21
2392.388751933318
 31
0.0
  0
LINE
  5
8113
330
A
100
AcDbEntity
  8
0
100
AcDbLine
 10
2676.466279705098
 20
2392.388751933318
 30
0.0
 11
2676.466279705098
 21
1594.388751933318
 31
0.0
  0
CIRCLE
  5
8174
330
A
100
AcDbEntity
  8
0
100
AcDbCircle
 10
2671.466279705098
 20
2193.388751933318
 30
0.0
 40
2.0
  0
LINE
  5
819F
330
A
100
AcDbEntity
  8
0
100
AcDbLine
 10
2652.52006895115
 20
1604.365625360655
 30
0.0
 11
2652.969946494709
 21
1604.865574763809
 31
0.0
  0
LINE
  5
81A0
330
A
100
AcDbEntity
  8
0
100
AcDbLine
 10
2652.969946494709
 20
1604.865574763809
 30
0.0
 11
2652.30980009927
 21
1605.581188615383
 31
0.0
  0
LINE
  5
81A1
330
A
100
AcDbEntity
  8
0
100
AcDbLine
 10
2652.304910125971
 20
1606.19877317222
 30
0.0
 11
2652.197330713381
 21
1605.865473570118
 31
0.0
  0
LINE
  5
81A2
330
A
100
AcDbEntity
  8
0
100
AcDbLine
 10
2652.197330713381
 20
1605.865473570118
 30
0.0
 11
2652.304910125971
 21
1605.571385685909
 31
0.0
  0
LINE
  5
81A3
330
A
100
AcDbEntity
  8
0
100
AcDbLine
 10
2652.304910125971
 20
1606.19877317222
 30
0.0
 11
2653.023736201004
 21
1606.914387023794
 31
0.0
  0
LINE
  5
81A4
330
A
100
AcDbEntity
  8
0
100
AcDbLine
 10
2653.023736201004
 20
1606.914387023794
 30
0.0
 11
2652.515178977851
 21
1607.36532177958
 31
0.0
  0
LINE
  5
81A5
330
A
100
AcDbEntity
  8
0
100
AcDbLine
 10
2652.515178977851
 20
1607.36532177958
 30
0.0
 11
2651.796352902817
 21
1606.698722575374
 31
0.0
  0
LINE
  5
81A6
330
A
100
AcDbEntity
  8
0
100
AcDbLine
 10
2651.189996213672
 20
1606.747737222743
 30
0.0
 11
2651.522514398042
 21
1606.581087421691
 31
0.0
  0
LINE
  5
81A7
330
A
100
AcDbEntity
  8
0
100
AcDbLine
 10
2651.522514398042
 20
1606.581087421691
 30
0.0
 11
2651.801242876116
 21
1606.698722575374
 31
0.0
  0
LINE
  5
81A8
330
A
100
AcDbEntity
  8
0
100
AcDbLine
 10
2651.189996213672
 20
1606.747737222743
 30
0.0
 11
2650.471170138639
 21
1607.424139356422
 31
0.0
  0
LINE
  5
81A9
330
A
100
AcDbEntity
  8
0
100
AcDbLine
 10
2650.471170138639
 20
1607.424139356422
 30
0.0
 11
2649.977282835383
 21
1606.973204600636
 31
0.0
  0
LINE
  5
81AA
330
A
100
AcDbEntity
  8
0
100
AcDbLine
 10
2649.977282835383
 20
1606.973204600636
 30
0.0
 11
2650.691218937119
 21
1606.247787819588
 31
0.0
  0
LINE
  5
81AB
330
A
100
AcDbEntity
  8
0
100
AcDbLine
 10
2650.642319204123
 20
1605.581188615383
 30
0.0
 11
2650.813468269607
 21
1605.914488217486
 31
0.0
  0
LINE
  5
81AC
330
A
100
AcDbEntity
  8
0
100
AcDbLine
 10
2650.813468269607
 20
1605.914488217486
 30
0.0
 11
2650.691218937119
 21
1606.247787819588
 31
0.0
  0
LINE
  5
81AD
330
A
100
AcDbEntity
  8
0
100
AcDbLine
 10
2650.642319204123
 20
1605.581188615383
 30
0.0
 11
2649.982172808683
 21
1604.865574763809
 31
0.0
  0
LINE
  5
81AE
330
A
100
AcDbEntity
  8
0
100
AcDbLine
 10
2649.982172808683
 20
1604.865574763809
 30
0.0
 11
2650.422270405643
 21
1604.414640008023
 31
0.0
  0
LINE
  5
81AF
330
A
100
AcDbEntity
  8
0
100
AcDbLine
 10
2650.422270405643
 20
1604.414640008023
 30
0.0
 11
2651.131316534078
 21
1605.081239212229
 31
0.0
  0
LINE
  5
81B0
330
A
100
AcDbEntity
  8
0
100
AcDbLine
 10
2651.796352902817
 20
1605.081239212229
 30
0.0
 11
2651.463834718447
 21
1605.198874365912
 31
0.0
  0
LINE
  5
81B1
330
A
100
AcDbEntity
  8
0
100
AcDbLine
 10
2651.463834718447
 20
1605.198874365912
 30
0.0
 11
2651.136206507378
 21
1605.081239212229
 31
0.0
  0
LINE
  5
81B2
330
A
100
AcDbEntity
  8
0
100
AcDbLine
 10
2652.52006895115
 20
1604.365625360655
 30
0.0
 11
2651.801242876116
 21
1605.081239212229
 31
0.0
  0
LINE
  5
81B5
330
A
100
AcDbEntity
  8
0
100
AcDbLine
 10
2650.857478029303
 20
1605.581188615383
 30
0.0
 11
2650.647209177422
 21
1605.581188615383
 31
0.0
  0
LINE
  5
81B6
330
A
100
AcDbEntity
  8
0
100
AcDbLine
 10
2650.691218937119
 20
1606.247787819588
 30
0.0
 11
2650.862368002603
 21
1606.19877317222
 31
0.0
  0
SPLINE
  5
81B7
330
A
100
AcDbEntity
  8
0
100
AcDbSpline
210
0.0
220
0.0
230
1.0
 70
     8
 71
     3
 72
     8
 73
     4
 74
     0
 42
0.00000001
 43
0.0000000001
 40
0.0
 40
0.0
 40
0.0
 40
0.0
 40
1.0
 40
1.0
 40
1.0
 40
1.0
 10
2650.857478029303
 20
1605.581188615383
 30
0.0
 10
2651.067746881184
 20
1605.816458922749
 30
0.0
 10
2651.10686666758
 20
1605.973305794327
 30
0.0
 10
2650.857478029303
 20
1606.208576101694
 30
0.0
  0
LINE
  5
81B8
330
A
100
AcDbEntity
  8
0
100
AcDbLine
 10
2651.189996213672
 20
1606.532072774323
 30
0.0
 11
2651.189996213672
 21
1606.737934293269
 31
0.0
  0
LINE
  5
81B9
330
A
100
AcDbEntity
  8
0
100
AcDbLine
 10
2651.796352902817
 20
1606.698722575374
 30
0.0
 11
2651.796352902817
 21
1606.473255197481
 31
0.0
  0
SPLINE
  5
81BA
330
A
100
AcDbEntity
  8
0
100
AcDbSpline
210
0.0
220
0.0
230
1.0
 70
     8
 71
     3
 72
     8
 73
     4
 74
     0
 42
0.00000001
 43
0.0000000001
 40
0.0
 40
0.0
 40
0.0
 40
0.0
 40
1.0
 40
1.0
 40
1.0
 40
1.0
 10
2651.189996213672
 20
1606.532072774323
 30
0.0
 10
2651.361145279156
 20
1606.30660539643
 30
0.0
 10
2651.600753970834
 20
1606.316408325903
 30
0.0
 10
2651.801242876116
 20
1606.473255197481
 30
0.0
  0
LINE
  5
81BB
330
A
100
AcDbEntity
  8
0
100
AcDbLine
 10
2652.079971354191
 20
1606.19877317222
 30
0.0
 11
2652.300020152671
 21
1606.19877317222
 31
0.0
  0
LINE
  5
81BC
330
A
100
AcDbEntity
  8
0
100
AcDbLine
 10
2652.304910125971
 20
1605.581188615383
 30
0.0
 11
2652.08486132749
 21
1605.581188615383
 31
0.0
  0
SPLINE
  5
81BD
330
A
100
AcDbEntity
  8
0
100
AcDbSpline
210
0.0
220
0.0
230
1.0
 70
     8
 71
     3
 72
     8
 73
     4
 74
     0
 42
0.00000001
 43
0.0000000001
 40
0.0
 40
0.0
 40
0.0
 40
0.0
 40
1.0
 40
1.0
 40
1.0
 40
1.0
 10
2652.079971354191
 20
1606.19877317222
 30
0.0
 10
2651.928382181905
 20
1606.012517512222
 30
0.0
 10
2651.928382181905
 20
1605.767444275381
 30
0.0
 10
2652.079971354191
 20
1605.571385685909
 30
0.0
  0
LINE
  5
81BE
330
A
100
AcDbEntity
  8
0
100
AcDbLine
 10
2651.796352902817
 20
1605.24788901328
 30
0.0
 11
2651.796352902817
 21
1605.081239212229
 31
0.0
  0
LINE
  5
81BF
330
A
100
AcDbEntity
  8
0
100
AcDbLine
 10
2651.131316534078
 20
1605.081239212229
 30
0.0
 11
2651.131316534078
 21
1605.306706590122
 31
0.0
  0
LINE
  5
81C0
330
A
100
AcDbEntity
  8
0
100
AcDbLine
 10
2651.796352902817
 20
1605.24788901328
 30
0.0
 11
2651.757233116421
 21
1605.306706590122
 31
0.0
  0
LINE
  5
81C1
330
A
100
AcDbEntity
  8
0
100
AcDbLine
 10
2651.757233116421
 20
1605.306706590122
 30
0.0
 11
2651.64476373053
 21
1605.365524166964
 31
0.0
  0
LINE
  5
81C2
330
A
100
AcDbEntity
  8
0
100
AcDbLine
 10
2651.64476373053
 20
1605.365524166964
 30
0.0
 11
2651.586084050936
 21
1605.414538814332
 31
0.0
  0
LINE
  5
81C3
330
A
100
AcDbEntity
  8
0
100
AcDbLine
 10
2651.586084050936
 20
1605.414538814332
 30
0.0
 11
2651.414934985452
 21
1605.414538814332
 31
0.0
  0
LINE
  5
81C4
330
A
100
AcDbEntity
  8
0
100
AcDbLine
 10
2651.414934985452
 20
1605.414538814332
 30
0.0
 11
2651.307355572862
 21
1605.365524166964
 31
0.0
  0
LINE
  5
81C5
330
A
100
AcDbEntity
  8
0
100
AcDbLine
 10
2651.307355572862
 20
1605.365524166964
 30
0.0
 11
2651.253565866567
 21
1605.365524166964
 31
0.0
  0
LINE
  5
81C6
330
A
100
AcDbEntity
  8
0
100
AcDbLine
 10
2651.253565866567
 20
1605.365524166964
 30
0.0
 11
2651.136206507378
 21
1605.306706590122
 31
0.0
  0
LINE
  5
81C7
330
A
100
AcDbEntity
  8
0
100
AcDbLine
 10
2650.466280165339
 20
1607.424139356422
 30
0.0
 11
2650.466280165339
 21
1607.247686625897
 31
0.0
  0
LINE
  5
81C8
330
A
100
AcDbEntity
  8
0
100
AcDbLine
 10
2650.466280165339
 20
1607.247686625897
 30
0.0
 11
2651.185106240373
 21
1606.532072774323
 31
0.0
  0
LINE
  5
81C9
330
A
100
AcDbEntity
  8
0
100
AcDbLine
 10
2649.977282835383
 20
1606.973204600636
 30
0.0
 11
2650.187551687265
 21
1606.914387023794
 31
0.0
  0
LINE
  5
81CA
330
A
100
AcDbEntity
  8
0
100
AcDbLine
 10
2650.187551687265
 20
1606.914387023794
 30
0.0
 11
2650.857478029303
 21
1606.19877317222
 31
0.0
  0
LINE
  5
81CB
330
A
100
AcDbEntity
  8
0
100
AcDbLine
 10
2652.969946494709
 20
1604.865574763809
 30
0.0
 11
2652.789017482626
 21
1604.865574763809
 31
0.0
  0
LINE
  5
81CC
330
A
100
AcDbEntity
  8
0
100
AcDbLine
 10
2652.789017482626
 20
1604.865574763809
 30
0.0
 11
2652.079971354191
 21
1605.581188615383
 31
0.0
  0
LINE
  5
81CD
330
A
100
AcDbEntity
  8
0
100
AcDbLine
 10
2653.028626174304
 20
1606.914387023794
 30
0.0
 11
2652.798797429225
 21
1606.914387023794
 31
0.0
  0
LINE
  5
81CE
330
A
100
AcDbEntity
  8
0
100
AcDbLine
 10
2652.798797429225
 20
1606.914387023794
 30
0.0
 11
2652.079971354191
 21
1606.19877317222
 31
0.0
  0
LINE
  5
81CF
330
A
100
AcDbEntity
  8
0
100
AcDbLine
 10
2650.417380432343
 20
1604.414640008023
 30
0.0
 11
2650.417380432343
 21
1604.581289809075
 31
0.0
  0
LINE
  5
81D0
330
A
100
AcDbEntity
  8
0
100
AcDbLine
 10
2650.417380432343
 20
1604.581289809075
 30
0.0
 11
2651.126426560779
 21
1605.306706590122
 31
0.0
  0
LINE
  5
81D1
330
A
100
AcDbEntity
  8
0
100
AcDbLine
 10
2652.52006895115
 20
1607.36532177958
 30
0.0
 11
2652.52006895115
 21
1607.198671978528
 31
0.0
  0
LINE
  5
81D2
330
A
100
AcDbEntity
  8
0
100
AcDbLine
 10
2652.52006895115
 20
1607.198671978528
 30
0.0
 11
2651.801242876116
 21
1606.473255197481
 31
0.0
  0
LINE
  5
81D3
330
A
100
AcDbEntity
  8
0
100
AcDbLine
 10
2649.977282835383
 20
1604.865574763809
 30
0.0
 11
2650.13865195427
 21
1604.865574763809
 31
0.0
  0
LINE
  5
81D4
330
A
100
AcDbEntity
  8
0
100
AcDbLine
 10
2650.13865195427
 20
1604.865574763809
 30
0.0
 11
2650.857478029303
 21
1605.581188615383
 31
0.0
  0
LINE
  5
81D5
330
A
100
AcDbEntity
  8
0
100
AcDbLine
 10
2652.52006895115
 20
1604.365625360655
 30
0.0
 11
2652.52006895115
 21
1604.532275161707
 31
0.0
  0
LINE
  5
81D6
330
A
100
AcDbEntity
  8
0
100
AcDbLine
 10
2652.52006895115
 20
1604.532275161707
 30
0.0
 11
2651.801242876116
 21
1605.24788901328
 31
0.0
  0
LINE
  5
81D7
330
A
100
AcDbEntity
  8
0
100
AcDbLine
 10
2652.52006895115
 20
1604.532275161707
 30
0.0
 11
2652.789017482626
 21
1604.865574763809
 31
0.0
  0
LINE
  5
81D8
330
A
100
AcDbEntity
  8
0
100
AcDbLine
 10
2652.793907455925
 20
1606.914387023794
 30
0.0
 11
2652.52495892445
 21
1607.198671978528
 31
0.0
  0
LINE
  5
81D9
330
A
100
AcDbEntity
  8
0
100
AcDbLine
 10
2650.133761980969
 20
1604.865574763809
 30
0.0
 11
2650.412490459044
 21
1604.581289809075
 31
0.0
  0
LINE
  5
81DA
330
A
100
AcDbEntity
  8
0
100
AcDbLine
 10
2650.466280165339
 20
1607.247686625897
 30
0.0
 11
2650.197331633864
 21
1606.914387023794
 31
0.0
  0
LINE
  5
81E1
330
A
100
AcDbEntity
  8
0
100
AcDbLine
 10
2683.52006895115
 20
1604.365625360655
 30
0.0
 11
2683.969946494709
 21
1604.865574763809
 31
0.0
  0
LINE
  5
81E2
330
A
100
AcDbEntity
  8
0
100
AcDbLine
 10
2683.969946494709
 20
1604.865574763809
 30
0.0
 11
2683.30980009927
 21
1605.581188615383
 31
0.0
  0
LINE
  5
81E3
330
A
100
AcDbEntity
  8
0
100
AcDbLine
 10
2683.304910125972
 20
1606.19877317222
 30
0.0
 11
2683.19733071338
 21
1605.865473570118
 31
0.0
  0
LINE
  5
81E4
330
A
100
AcDbEntity
  8
0
100
AcDbLine
 10
2683.19733071338
 20
1605.865473570118
 30
0.0
 11
2683.304910125972
 21
1605.571385685909
 31
0.0
  0
LINE
  5
81E5
330
A
100
AcDbEntity
  8
0
100
AcDbLine
 10
2683.304910125972
 20
1606.19877317222
 30
0.0
 11
2684.023736201004
 21
1606.914387023794
 31
0.0
  0
LINE
  5
81E6
330
A
100
AcDbEntity
  8
0
100
AcDbLine
 10
2684.023736201004
 20
1606.914387023794
 30
0.0
 11
2683.515178977851
 21
1607.36532177958
 31
0.0
  0
LINE
  5
81E7
330
A
100
AcDbEntity
  8
0
100
AcDbLine
 10
2683.515178977851
 20
1607.36532177958
 30
0.0
 11
2682.796352902817
 21
1606.698722575374
 31
0.0
  0
LINE
  5
81E8
330
A
100
AcDbEntity
  8
0
100
AcDbLine
 10
2682.189996213673
 20
1606.747737222743
 30
0.0
 11
2682.522514398042
 21
1606.581087421691
 31
0.0
  0
LINE
  5
81E9
330
A
100
AcDbEntity
  8
0
100
AcDbLine
 10
2682.522514398042
 20
1606.581087421691
 30
0.0
 11
2682.801242876116
 21
1606.698722575374
 31
0.0
  0
LINE
  5
81EA
330
A
100
AcDbEntity
  8
0
100
AcDbLine
 10
2682.189996213673
 20
1606.747737222743
 30
0.0
 11
2681.471170138639
 21
1607.424139356422
 31
0.0
  0
LINE
  5
81EB
330
A
100
AcDbEntity
  8
0
100
AcDbLine
 10
2681.471170138639
 20
1607.424139356422
 30
0.0
 11
2680.977282835384
 21
1606.973204600636
 31
0.0
  0
LINE
  5
81EC
330
A
100
AcDbEntity
  8
0
100
AcDbLine
 10
2680.977282835384
 20
1606.973204600636
 30
0.0
 11
2681.691218937119
 21
1606.247787819588
 31
0.0
  0
LINE
  5
81ED
330
A
100
AcDbEntity
  8
0
100
AcDbLine
 10
2681.642319204123
 20
1605.581188615383
 30
0.0
 11
2681.813468269607
 21
1605.914488217486
 31
0.0
  0
LINE
  5
81EE
330
A
100
AcDbEntity
  8
0
100
AcDbLine
 10
2681.813468269607
 20
1605.914488217486
 30
0.0
 11
2681.691218937119
 21
1606.247787819588
 31
0.0
  0
LINE
  5
81EF
330
A
100
AcDbEntity
  8
0
100
AcDbLine
 10
2681.642319204123
 20
1605.581188615383
 30
0.0
 11
2680.982172808683
 21
1604.865574763809
 31
0.0
  0
LINE
  5
81F0
330
A
100
AcDbEntity
  8
0
100
AcDbLine
 10
2680.982172808683
 20
1604.865574763809
 30
0.0
 11
2681.422270405643
 21
1604.414640008023
 31
0.0
  0
LINE
  5
81F1
330
A
100
AcDbEntity
  8
0
100
AcDbLine
 10
2681.422270405643
 20
1604.414640008023
 30
0.0
 11
2682.131316534078
 21
1605.081239212229
 31
0.0
  0
LINE
  5
81F2
330
A
100
AcDbEntity
  8
0
100
AcDbLine
 10
2682.796352902817
 20
1605.081239212229
 30
0.0
 11
2682.463834718447
 21
1605.198874365912
 31
0.0
  0
LINE
  5
81F3
330
A
100
AcDbEntity
  8
0
100
AcDbLine
 10
2682.463834718447
 20
1605.198874365912
 30
0.0
 11
2682.136206507377
 21
1605.081239212229
 31
0.0
  0
LINE
  5
81F4
330
A
100
AcDbEntity
  8
0
100
AcDbLine
 10
2683.52006895115
 20
1604.365625360655
 30
0.0
 11
2682.801242876116
 21
1605.081239212229
 31
0.0
  0
LINE
  5
81F7
330
A
100
AcDbEntity
  8
0
100
AcDbLine
 10
2681.857478029303
 20
1605.581188615383
 30
0.0
 11
2681.647209177422
 21
1605.581188615383
 31
0.0
  0
LINE
  5
81F8
330
A
100
AcDbEntity
  8
0
100
AcDbLine
 10
2681.691218937119
 20
1606.247787819588
 30
0.0
 11
2681.862368002602
 21
1606.19877317222
 31
0.0
  0
SPLINE
  5
81F9
330
A
100
AcDbEntity
  8
0
100
AcDbSpline
210
0.0
220
0.0
230
1.0
 70
     8
 71
     3
 72
     8
 73
     4
 74
     0
 42
0.00000001
 43
0.0000000001
 40
0.0
 40
0.0
 40
0.0
 40
0.0
 40
1.0
 40
1.0
 40
1.0
 40
1.0
 10
2681.857478029303
 20
1605.581188615383
 30
0.0
 10
2682.067746881184
 20
1605.816458922749
 30
0.0
 10
2682.10686666758
 20
1605.973305794327
 30
0.0
 10
2681.857478029303
 20
1606.208576101694
 30
0.0
  0
LINE
  5
81FA
330
A
100
AcDbEntity
  8
0
100
AcDbLine
 10
2682.189996213673
 20
1606.532072774323
 30
0.0
 11
2682.189996213673
 21
1606.737934293269
 31
0.0
  0
LINE
  5
81FB
330
A
100
AcDbEntity
  8
0
100
AcDbLine
 10
2682.796352902817
 20
1606.698722575374
 30
0.0
 11
2682.796352902817
 21
1606.473255197481
 31
0.0
  0
SPLINE
  5
81FC
330
A
100
AcDbEntity
  8
0
100
AcDbSpline
210
0.0
220
0.0
230
1.0
 70
     8
 71
     3
 72
     8
 73
     4
 74
     0
 42
0.00000001
 43
0.0000000001
 40
0.0
 40
0.0
 40
0.0
 40
0.0
 40
1.0
 40
1.0
 40
1.0
 40
1.0
 10
2682.189996213673
 20
1606.532072774323
 30
0.0
 10
2682.361145279156
 20
1606.30660539643
 30
0.0
 10
2682.600753970834
 20
1606.316408325903
 30
0.0
 10
2682.801242876116
 20
1606.473255197481
 30
0.0
  0
LINE
  5
81FD
330
A
100
AcDbEntity
  8
0
100
AcDbLine
 10
2683.079971354191
 20
1606.19877317222
 30
0.0
 11
2683.300020152671
 21
1606.19877317222
 31
0.0
  0
LINE
  5
81FE
330
A
100
AcDbEntity
  8
0
100
AcDbLine
 10
2683.304910125972
 20
1605.581188615383
 30
0.0
 11
2683.08486132749
 21
1605.581188615383
 31
0.0
  0
SPLINE
  5
81FF
330
A
100
AcDbEntity
  8
0
100
AcDbSpline
210
0.0
220
0.0
230
1.0
 70
     8
 71
     3
 72
     8
 73
     4
 74
     0
 42
0.00000001
 43
0.0000000001
 40
0.0
 40
0.0
 40
0.0
 40
0.0
 40
1.0
 40
1.0
 40
1.0
 40
1.0
 10
2683.079971354191
 20
1606.19877317222
 30
0.0
 10
2682.928382181905
 20
1606.012517512222
 30
0.0
 10
2682.928382181905
 20
1605.767444275381
 30
0.0
 10
2683.079971354191
 20
1605.571385685909
 30
0.0
  0
LINE
  5
8200
330
A
100
AcDbEntity
  8
0
100
AcDbLine
 10
2682.796352902817
 20
1605.24788901328
 30
0.0
 11
2682.796352902817
 21
1605.081239212229
 31
0.0
  0
LINE
  5
8201
330
A
100
AcDbEntity
  8
0
100
AcDbLine
 10
2682.131316534078
 20
1605.081239212229
 30
0.0
 11
2682.131316534078
 21
1605.306706590122
 31
0.0
  0
LINE
  5
8202
330
A
100
AcDbEntity
  8
0
100
AcDbLine
 10
2682.796352902817
 20
1605.24788901328
 30
0.0
 11
2682.757233116421
 21
1605.306706590122
 31
0.0
  0
LINE
  5
8203
330
A
100
AcDbEntity
  8
0
100
AcDbLine
 10
2682.757233116421
 20
1605.306706590122
 30
0.0
 11
2682.644763730531
 21
1605.365524166964
 31
0.0
  0
LINE
  5
8204
330
A
100
AcDbEntity
  8
0
100
AcDbLine
 10
2682.644763730531
 20
1605.365524166964
 30
0.0
 11
2682.586084050937
 21
1605.414538814332
 31
0.0
  0
LINE
  5
8205
330
A
100
AcDbEntity
  8
0
100
AcDbLine
 10
2682.586084050937
 20
1605.414538814332
 30
0.0
 11
2682.414934985452
 21
1605.414538814332
 31
0.0
  0
LINE
  5
8206
330
A
100
AcDbEntity
  8
0
100
AcDbLine
 10
2682.414934985452
 20
1605.414538814332
 30
0.0
 11
2682.307355572862
 21
1605.365524166964
 31
0.0
  0
LINE
  5
8207
330
A
100
AcDbEntity
  8
0
100
AcDbLine
 10
2682.307355572862
 20
1605.365524166964
 30
0.0
 11
2682.253565866567
 21
1605.365524166964
 31
0.0
  0
LINE
  5
8208
330
A
100
AcDbEntity
  8
0
100
AcDbLine
 10
2682.253565866567
 20
1605.365524166964
 30
0.0
 11
2682.136206507377
 21
1605.306706590122
 31
0.0
  0
LINE
  5
8209
330
A
100
AcDbEntity
  8
0
100
AcDbLine
 10
2681.466280165339
 20
1607.424139356422
 30
0.0
 11
2681.466280165339
 21
1607.247686625897
 31
0.0
  0
LINE
  5
820A
330
A
100
AcDbEntity
  8
0
100
AcDbLine
 10
2681.466280165339
 20
1607.247686625897
 30
0.0
 11
2682.185106240373
 21
1606.532072774323
 31
0.0
  0
LINE
  5
820B
330
A
100
AcDbEntity
  8
0
100
AcDbLine
 10
2680.977282835384
 20
1606.973204600636
 30
0.0
 11
2681.187551687265
 21
1606.914387023794
 31
0.0
  0
LINE
  5
820C
330
A
100
AcDbEntity
  8
0
100
AcDbLine
 10
2681.187551687265
 20
1606.914387023794
 30
0.0
 11
2681.857478029303
 21
1606.19877317222
 31
0.0
  0
LINE
  5
820D
330
A
100
AcDbEntity
  8
0
100
AcDbLine
 10
2683.969946494709
 20
1604.865574763809
 30
0.0
 11
2683.789017482626
 21
1604.865574763809
 31
0.0
  0
LINE
  5
820E
330
A
100
AcDbEntity
  8
0
100
AcDbLine
 10
2683.789017482626
 20
1604.865574763809
 30
0.0
 11
2683.079971354191
 21
1605.581188615383
 31
0.0
  0
LINE
  5
820F
330
A
100
AcDbEntity
  8
0
100
AcDbLine
 10
2684.028626174305
 20
1606.914387023794
 30
0.0
 11
2683.798797429225
 21
1606.914387023794
 31
0.0
  0
LINE
  5
8210
330
A
100
AcDbEntity
  8
0
100
AcDbLine
 10
2683.798797429225
 20
1606.914387023794
 30
0.0
 11
2683.079971354191
 21
1606.19877317222
 31
0.0
  0
LINE
  5
8211
330
A
100
AcDbEntity
  8
0
100
AcDbLine
 10
2681.417380432343
 20
1604.414640008023
 30
0.0
 11
2681.417380432343
 21
1604.581289809075
 31
0.0
  0
LINE
  5
8212
330
A
100
AcDbEntity
  8
0
100
AcDbLine
 10
2681.417380432343
 20
1604.581289809075
 30
0.0
 11
2682.126426560778
 21
1605.306706590122
 31
0.0
  0
LINE
  5
8213
330
A
100
AcDbEntity
  8
0
100
AcDbLine
 10
2683.52006895115
 20
1607.36532177958
 30
0.0
 11
2683.52006895115
 21
1607.198671978528
 31
0.0
  0
LINE
  5
8214
330
A
100
AcDbEntity
  8
0
100
AcDbLine
 10
2683.52006895115
 20
1607.198671978528
 30
0.0
 11
2682.801242876116
 21
1606.473255197481
 31
0.0
  0
LINE
  5
8215
330
A
100
AcDbEntity
  8
0
100
AcDbLine
 10
2680.977282835384
 20
1604.865574763809
 30
0.0
 11
2681.138651954269
 21
1604.865574763809
 31
0.0
  0
LINE
  5
8216
330
A
100
AcDbEntity
  8
0
100
AcDbLine
 10
2681.138651954269
 20
1604.865574763809
 30
0.0
 11
2681.857478029303
 21
1605.581188615383
 31
0.0
  0
LINE
  5
8217
330
A
100
AcDbEntity
  8
0
100
AcDbLine
 10
2683.52006895115
 20
1604.365625360655
 30
0.0
 11
2683.52006895115
 21
1604.532275161707
 31
0.0
  0
LINE
  5
8218
330
A
100
AcDbEntity
  8
0
100
AcDbLine
 10
2683.52006895115
 20
1604.532275161707
 30
0.0
 11
2682.801242876116
 21
1605.24788901328
 31
0.0
  0
LINE
  5
8219
330
A
100
AcDbEntity
  8
0
100
AcDbLine
 10
2683.52006895115
 20
1604.532275161707
 30
0.0
 11
2683.789017482626
 21
1604.865574763809
 31
0.0
  0
LINE
  5
821A
330
A
100
AcDbEntity
  8
0
100
AcDbLine
 10
2683.793907455926
 20
1606.914387023794
 30
0.0
 11
2683.52495892445
 21
1607.198671978528
 31
0.0
  0
LINE
  5
821B
330
A
100
AcDbEntity
  8
0
100
AcDbLine
 10
2681.133761980969
 20
1604.865574763809
 30
0.0
 11
2681.412490459044
 21
1604.581289809075
 31
0.0
  0
LINE
  5
821C
330
A
100
AcDbEntity
  8
0
100
AcDbLine
 10
2681.466280165339
 20
1607.247686625897
 30
0.0
 11
2681.197331633864
 21
1606.914387023794
 31
0.0
  0
LINE
  5
8223
330
A
100
AcDbEntity
  8
0
100
AcDbLine
 10
2683.52006895115
 20
2379.365625360655
 30
0.0
 11
2683.969946494709
 21
2379.865574763809
 31
0.0
  0
LINE
  5
8224
330
A
100
AcDbEntity
  8
0
100
AcDbLine
 10
2683.969946494709
 20
2379.865574763809
 30
0.0
 11
2683.30980009927
 21
2380.581188615383
 31
0.0
  0
LINE
  5
8225
330
A
100
AcDbEntity
  8
0
100
AcDbLine
 10
2683.304910125972
 20
2381.19877317222
 30
0.0
 11
2683.19733071338
 21
2380.865473570118
 31
0.0
  0
LINE
  5
8226
330
A
100
AcDbEntity
  8
0
100
AcDbLine
 10
2683.19733071338
 20
2380.865473570118
 30
0.0
 11
2683.304910125972
 21
2380.571385685909
 31
0.0
  0
LINE
  5
8227
330
A
100
AcDbEntity
  8
0
100
AcDbLine
 10
2683.304910125972
 20
2381.19877317222
 30
0.0
 11
2684.023736201004
 21
2381.914387023794
 31
0.0
  0
LINE
  5
8228
330
A
100
AcDbEntity
  8
0
100
AcDbLine
 10
2684.023736201004
 20
2381.914387023794
 30
0.0
 11
2683.515178977851
 21
2382.36532177958
 31
0.0
  0
LINE
  5
8229
330
A
100
AcDbEntity
  8
0
100
AcDbLine
 10
2683.515178977851
 20
2382.36532177958
 30
0.0
 11
2682.796352902817
 21
2381.698722575375
 31
0.0
  0
LINE
  5
822A
330
A
100
AcDbEntity
  8
0
100
AcDbLine
 10
2682.189996213673
 20
2381.747737222744
 30
0.0
 11
2682.522514398042
 21
2381.581087421691
 31
0.0
  0
LINE
  5
822B
330
A
100
AcDbEntity
  8
0
100
AcDbLine
 10
2682.522514398042
 20
2381.581087421691
 30
0.0
 11
2682.801242876116
 21
2381.698722575375
 31
0.0
  0
LINE
  5
822C
330
A
100
AcDbEntity
  8
0
100
AcDbLine
 10
2682.189996213673
 20
2381.747737222744
 30
0.0
 11
2681.471170138639
 21
2382.424139356422
 31
0.0
  0
LINE
  5
822D
330
A
100
AcDbEntity
  8
0
100
AcDbLine
 10
2681.471170138639
 20
2382.424139356422
 30
0.0
 11
2680.977282835384
 21
2381.973204600636
 31
0.0
  0
LINE
  5
822E
330
A
100
AcDbEntity
  8
0
100
AcDbLine
 10
2680.977282835384
 20
2381.973204600636
 30
0.0
 11
2681.691218937119
 21
2381.247787819589
 31
0.0
  0
LINE
  5
822F
330
A
100
AcDbEntity
  8
0
100
AcDbLine
 10
2681.642319204123
 20
2380.581188615383
 30
0.0
 11
2681.813468269607
 21
2380.914488217486
 31
0.0
  0
LINE
  5
8230
330
A
100
AcDbEntity
  8
0
100
AcDbLine
 10
2681.813468269607
 20
2380.914488217486
 30
0.0
 11
2681.691218937119
 21
2381.247787819589
 31
0.0
  0
LINE
  5
8231
330
A
100
AcDbEntity
  8
0
100
AcDbLine
 10
2681.642319204123
 20
2380.581188615383
 30
0.0
 11
2680.982172808683
 21
2379.865574763809
 31
0.0
  0
LINE
  5
8232
330
A
100
AcDbEntity
  8
0
100
AcDbLine
 10
2680.982172808683
 20
2379.865574763809
 30
0.0
 11
2681.422270405643
 21
2379.414640008024
 31
0.0
  0
LINE
  5
8233
330
A
100
AcDbEntity
  8
0
100
AcDbLine
 10
2681.422270405643
 20
2379.414640008024
 30
0.0
 11
2682.131316534078
 21
2380.081239212229
 31
0.0
  0
LINE
  5
8234
330
A
100
AcDbEntity
  8
0
100
AcDbLine
 10
2682.796352902817
 20
2380.081239212229
 30
0.0
 11
2682.463834718447
 21
2380.198874365913
 31
0.0
  0
LINE
  5
8235
330
A
100
AcDbEntity
  8
0
100
AcDbLine
 10
2682.463834718447
 20
2380.198874365913
 30
0.0
 11
2682.136206507377
 21
2380.081239212229
 31
0.0
  0
LINE
  5
8236
330
A
100
AcDbEntity
  8
0
100
AcDbLine
 10
2683.52006895115
 20
2379.365625360655
 30
0.0
 11
2682.801242876116
 21
2380.081239212229
 31
0.0
  0
LINE
  5
8239
330
A
100
AcDbEntity
  8
0
100
AcDbLine
 10
2681.857478029303
 20
2380.581188615383
 30
0.0
 11
2681.647209177422
 21
2380.581188615383
 31
0.0
  0
LINE
  5
823A
330
A
100
AcDbEntity
  8
0
100
AcDbLine
 10
2681.691218937119
 20
2381.247787819589
 30
0.0
 11
2681.862368002602
 21
2381.19877317222
 31
0.0
  0
SPLINE
  5
823B
330
A
100
AcDbEntity
  8
0
100
AcDbSpline
210
0.0
220
0.0
230
1.0
 70
     8
 71
     3
 72
     8
 73
     4
 74
     0
 42
0.00000001
 43
0.0000000001
 40
0.0
 40
0.0
 40
0.0
 40
0.0
 40
1.0
 40
1.0
 40
1.0
 40
1.0
 10
2681.857478029303
 20
2380.581188615383
 30
0.0
 10
2682.067746881184
 20
2380.816458922749
 30
0.0
 10
2682.10686666758
 20
2380.973305794328
 30
0.0
 10
2681.857478029303
 20
2381.208576101694
 30
0.0
  0
LINE
  5
823C
330
A
100
AcDbEntity
  8
0
100
AcDbLine
 10
2682.189996213673
 20
2381.532072774323
 30
0.0
 11
2682.189996213673
 21
2381.737934293269
 31
0.0
  0
LINE
  5
823D
330
A
100
AcDbEntity
  8
0
100
AcDbLine
 10
2682.796352902817
 20
2381.698722575375
 30
0.0
 11
2682.796352902817
 21
2381.473255197482
 31
0.0
  0
SPLINE
  5
823E
330
A
100
AcDbEntity
  8
0
100
AcDbSpline
210
0.0
220
0.0
230
1.0
 70
     8
 71
     3
 72
     8
 73
     4
 74
     0
 42
0.00000001
 43
0.0000000001
 40
0.0
 40
0.0
 40
0.0
 40
0.0
 40
1.0
 40
1.0
 40
1.0
 40
1.0
 10
2682.189996213673
 20
2381.532072774323
 30
0.0
 10
2682.361145279156
 20
2381.30660539643
 30
0.0
 10
2682.600753970834
 20
2381.316408325904
 30
0.0
 10
2682.801242876116
 20
2381.473255197482
 30
0.0
  0
LINE
  5
823F
330
A
100
AcDbEntity
  8
0
100
AcDbLine
 10
2683.079971354191
 20
2381.19877317222
 30
0.0
 11
2683.300020152671
 21
2381.19877317222
 31
0.0
  0
LINE
  5
8240
330
A
100
AcDbEntity
  8
0
100
AcDbLine
 10
2683.304910125972
 20
2380.581188615383
 30
0.0
 11
2683.08486132749
 21
2380.581188615383
 31
0.0
  0
SPLINE
  5
8241
330
A
100
AcDbEntity
  8
0
100
AcDbSpline
210
0.0
220
0.0
230
1.0
 70
     8
 71
     3
 72
     8
 73
     4
 74
     0
 42
0.00000001
 43
0.0000000001
 40
0.0
 40
0.0
 40
0.0
 40
0.0
 40
1.0
 40
1.0
 40
1.0
 40
1.0
 10
2683.079971354191
 20
2381.19877317222
 30
0.0
 10
2682.928382181905
 20
2381.012517512222
 30
0.0
 10
2682.928382181905
 20
2380.767444275381
 30
0.0
 10
2683.079971354191
 20
2380.571385685909
 30
0.0
  0
LINE
  5
8242
330
A
100
AcDbEntity
  8
0
100
AcDbLine
 10
2682.796352902817
 20
2380.24788901328
 30
0.0
 11
2682.796352902817
 21
2380.081239212229
 31
0.0
  0
LINE
  5
8243
330
A
100
AcDbEntity
  8
0
100
AcDbLine
 10
2682.131316534078
 20
2380.081239212229
 30
0.0
 11
2682.131316534078
 21
2380.306706590122
 31
0.0
  0
LINE
  5
8244
330
A
100
AcDbEntity
  8
0
100
AcDbLine
 10
2682.796352902817
 20
2380.24788901328
 30
0.0
 11
2682.757233116421
 21
2380.306706590122
 31
0.0
  0
LINE
  5
8245
330
A
100
AcDbEntity
  8
0
100
AcDbLine
 10
2682.757233116421
 20
2380.306706590122
 30
0.0
 11
2682.644763730531
 21
2380.365524166964
 31
0.0
  0
LINE
  5
8246
330
A
100
AcDbEntity
  8
0
100
AcDbLine
 10
2682.644763730531
 20
2380.365524166964
 30
0.0
 11
2682.586084050937
 21
2380.414538814331
 31
0.0
  0
LINE
  5
8247
330
A
100
AcDbEntity
  8
0
100
AcDbLine
 10
2682.586084050937
 20
2380.414538814331
 30
0.0
 11
2682.414934985452
 21
2380.414538814331
 31
0.0
  0
LINE
  5
8248
330
A
100
AcDbEntity
  8
0
100
AcDbLine
 10
2682.414934985452
 20
2380.414538814331
 30
0.0
 11
2682.307355572862
 21
2380.365524166964
 31
0.0
  0
LINE
  5
8249
330
A
100
AcDbEntity
  8
0
100
AcDbLine
 10
2682.307355572862
 20
2380.365524166964
 30
0.0
 11
2682.253565866567
 21
2380.365524166964
 31
0.0
  0
LINE
  5
824A
330
A
100
AcDbEntity
  8
0
100
AcDbLine
 10
2682.253565866567
 20
2380.365524166964
 30
0.0
 11
2682.136206507377
 21
2380.306706590122
 31
0.0
  0
LINE
  5
824B
330
A
100
AcDbEntity
  8
0
100
AcDbLine
 10
2681.466280165339
 20
2382.424139356422
 30
0.0
 11
2681.466280165339
 21
2382.247686625897
 31
0.0
  0
LINE
  5
824C
330
A
100
AcDbEntity
  8
0
100
AcDbLine
 10
2681.466280165339
 20
2382.247686625897
 30
0.0
 11
2682.185106240373
 21
2381.532072774323
 31
0.0
  0
LINE
  5
824D
330
A
100
AcDbEntity
  8
0
100
AcDbLine
 10
2680.977282835384
 20
2381.973204600636
 30
0.0
 11
2681.187551687265
 21
2381.914387023794
 31
0.0
  0
LINE
  5
824E
330
A
100
AcDbEntity
  8
0
100
AcDbLine
 10
2681.187551687265
 20
2381.914387023794
 30
0.0
 11
2681.857478029303
 21
2381.19877317222
 31
0.0
  0
LINE
  5
824F
330
A
100
AcDbEntity
  8
0
100
AcDbLine
 10
2683.969946494709
 20
2379.865574763809
 30
0.0
 11
2683.789017482626
 21
2379.865574763809
 31
0.0
  0
LINE
  5
8250
330
A
100
AcDbEntity
  8
0
100
AcDbLine
 10
2683.789017482626
 20
2379.865574763809
 30
0.0
 11
2683.079971354191
 21
2380.581188615383
 31
0.0
  0
LINE
  5
8251
330
A
100
AcDbEntity
  8
0
100
AcDbLine
 10
2684.028626174305
 20
2381.914387023794
 30
0.0
 11
2683.798797429225
 21
2381.914387023794
 31
0.0
  0
LINE
  5
8252
330
A
100
AcDbEntity
  8
0
100
AcDbLine
 10
2683.798797429225
 20
2381.914387023794
 30
0.0
 11
2683.079971354191
 21
2381.19877317222
 31
0.0
  0
LINE
  5
8253
330
A
100
AcDbEntity
  8
0
100
AcDbLine
 10
2681.417380432343
 20
2379.414640008024
 30
0.0
 11
2681.417380432343
 21
2379.581289809075
 31
0.0
  0
LINE
  5
8254
330
A
100
AcDbEntity
  8
0
100
AcDbLine
 10
2681.417380432343
 20
2379.581289809075
 30
0.0
 11
2682.126426560778
 21
2380.306706590122
 31
0.0
  0
LINE
  5
8255
330
A
100
AcDbEntity
  8
0
100
AcDbLine
 10
2683.52006895115
 20
2382.36532177958
 30
0.0
 11
2683.52006895115
 21
2382.198671978529
 31
0.0
  0
LINE
  5
8256
330
A
100
AcDbEntity
  8
0
100
AcDbLine
 10
2683.52006895115
 20
2382.198671978529
 30
0.0
 11
2682.801242876116
 21
2381.473255197482
 31
0.0
  0
LINE
  5
8257
330
A
100
AcDbEntity
  8
0
100
AcDbLine
 10
2680.977282835384
 20
2379.865574763809
 30
0.0
 11
2681.138651954269
 21
2379.865574763809
 31
0.0
  0
LINE
  5
8258
330
A
100
AcDbEntity
  8
0
100
AcDbLine
 10
2681.138651954269
 20
2379.865574763809
 30
0.0
 11
2681.857478029303
 21
2380.581188615383
 31
0.0
  0
LINE
  5
8259
330
A
100
AcDbEntity
  8
0
100
AcDbLine
 10
2683.52006895115
 20
2379.365625360655
 30
0.0
 11
2683.52006895115
 21
2379.532275161707
 31
0.0
  0
LINE
  5
825A
330
A
100
AcDbEntity
  8
0
100
AcDbLine
 10
2683.52006895115
 20
2379.532275161707
 30
0.0
 11
2682.801242876116
 21
2380.24788901328
 31
0.0
  0
LINE
  5
825B
330
A
100
AcDbEntity
  8
0
100
AcDbLine
 10
2683.52006895115
 20
2379.532275161707
 30
0.0
 11
2683.789017482626
 21
2379.865574763809
 31
0.0
  0
LINE
  5
825C
330
A
100
AcDbEntity
  8
0
100
AcDbLine
 10
2683.793907455926
 20
2381.914387023794
 30
0.0
 11
2683.52495892445
 21
2382.198671978529
 31
0.0
  0
LINE
  5
825D
330
A
100
AcDbEntity
  8
0
100
AcDbLine
 10
2681.133761980969
 20
2379.865574763809
 30
0.0
 11
2681.412490459044
 21
2379.581289809075
 31
0.0
  0
LINE
  5
825E
330
A
100
AcDbEntity
  8
0
100
AcDbLine
 10
2681.466280165339
 20
2382.247686625897
 30
0.0
 11
2681.197331633864
 21
2381.914387023794
 31
0.0
  0
LINE
  5
8265
330
A
100
AcDbEntity
  8
0
100
AcDbLine
 10
2652.52006895115
 20
2379.365625360655
 30
0.0
 11
2652.969946494709
 21
2379.865574763809
 31
0.0
  0
LINE
  5
8266
330
A
100
AcDbEntity
  8
0
100
AcDbLine
 10
2652.969946494709
 20
2379.865574763809
 30
0.0
 11
2652.30980009927
 21
2380.581188615383
 31
0.0
  0
LINE
  5
8267
330
A
100
AcDbEntity
  8
0
100
AcDbLine
 10
2652.304910125971
 20
2381.19877317222
 30
0.0
 11
2652.197330713381
 21
2380.865473570118
 31
0.0
  0
LINE
  5
8268
330
A
100
AcDbEntity
  8
0
100
AcDbLine
 10
2652.197330713381
 20
2380.865473570118
 30
0.0
 11
2652.304910125971
 21
2380.571385685909
 31
0.0
  0
LINE
  5
8269
330
A
100
AcDbEntity
  8
0
100
AcDbLine
 10
2652.304910125971
 20
2381.19877317222
 30
0.0
 11
2653.023736201004
 21
2381.914387023794
 31
0.0
  0
LINE
  5
826A
330
A
100
AcDbEntity
  8
0
100
AcDbLine
 10
2653.023736201004
 20
2381.914387023794
 30
0.0
 11
2652.515178977851
 21
2382.36532177958
 31
0.0
  0
LINE
  5
826B
330
A
100
AcDbEntity
  8
0
100
AcDbLine
 10
2652.515178977851
 20
2382.36532177958
 30
0.0
 11
2651.796352902817
 21
2381.698722575375
 31
0.0
  0
LINE
  5
826C
330
A
100
AcDbEntity
  8
0
100
AcDbLine
 10
2651.189996213672
 20
2381.747737222744
 30
0.0
 11
2651.522514398042
 21
2381.581087421691
 31
0.0
  0
LINE
  5
826D
330
A
100
AcDbEntity
  8
0
100
AcDbLine
 10
2651.522514398042
 20
2381.581087421691
 30
0.0
 11
2651.801242876116
 21
2381.698722575375
 31
0.0
  0
LINE
  5
826E
330
A
100
AcDbEntity
  8
0
100
AcDbLine
 10
2651.189996213672
 20
2381.747737222744
 30
0.0
 11
2650.471170138639
 21
2382.424139356422
 31
0.0
  0
LINE
  5
826F
330
A
100
AcDbEntity
  8
0
100
AcDbLine
 10
2650.471170138639
 20
2382.424139356422
 30
0.0
 11
2649.977282835383
 21
2381.973204600636
 31
0.0
  0
LINE
  5
8270
330
A
100
AcDbEntity
  8
0
100
AcDbLine
 10
2649.977282835383
 20
2381.973204600636
 30
0.0
 11
2650.691218937119
 21
2381.247787819589
 31
0.0
  0
LINE
  5
8271
330
A
100
AcDbEntity
  8
0
100
AcDbLine
 10
2650.642319204123
 20
2380.581188615383
 30
0.0
 11
2650.813468269607
 21
2380.914488217486
 31
0.0
  0
LINE
  5
8272
330
A
100
AcDbEntity
  8
0
100
AcDbLine
 10
2650.813468269607
 20
2380.914488217486
 30
0.0
 11
2650.691218937119
 21
2381.247787819589
 31
0.0
  0
LINE
  5
8273
330
A
100
AcDbEntity
  8
0
100
AcDbLine
 10
2650.642319204123
 20
2380.581188615383
 30
0.0
 11
2649.982172808683
 21
2379.865574763809
 31
0.0
  0
LINE
  5
8274
330
A
100
AcDbEntity
  8
0
100
AcDbLine
 10
2649.982172808683
 20
2379.865574763809
 30
0.0
 11
2650.422270405643
 21
2379.414640008024
 31
0.0
  0
LINE
  5
8275
330
A
100
AcDbEntity
  8
0
100
AcDbLine
 10
2650.422270405643
 20
2379.414640008024
 30
0.0
 11
2651.131316534078
 21
2380.081239212229
 31
0.0
  0
LINE
  5
8276
330
A
100
AcDbEntity
  8
0
100
AcDbLine
 10
2651.796352902817
 20
2380.081239212229
 30
0.0
 11
2651.463834718447
 21
2380.198874365913
 31
0.0
  0
LINE
  5
8277
330
A
100
AcDbEntity
  8
0
100
AcDbLine
 10
2651.463834718447
 20
2380.198874365913
 30
0.0
 11
2651.136206507378
 21
2380.081239212229
 31
0.0
  0
LINE
  5
8278
330
A
100
AcDbEntity
  8
0
100
AcDbLine
 10
2652.52006895115
 20
2379.365625360655
 30
0.0
 11
2651.801242876116
 21
2380.081239212229
 31
0.0
  0
LINE
  5
827B
330
A
100
AcDbEntity
  8
0
100
AcDbLine
 10
2650.857478029303
 20
2380.581188615383
 30
0.0
 11
2650.647209177422
 21
2380.581188615383
 31
0.0
  0
LINE
  5
827C
330
A
100
AcDbEntity
  8
0
100
AcDbLine
 10
2650.691218937119
 20
2381.247787819589
 30
0.0
 11
2650.862368002603
 21
2381.19877317222
 31
0.0
  0
SPLINE
  5
827D
330
A
100
AcDbEntity
  8
0
100
AcDbSpline
210
0.0
220
0.0
230
1.0
 70
     8
 71
     3
 72
     8
 73
     4
 74
     0
 42
0.00000001
 43
0.0000000001
 40
0.0
 40
0.0
 40
0.0
 40
0.0
 40
1.0
 40
1.0
 40
1.0
 40
1.0
 10
2650.857478029303
 20
2380.581188615383
 30
0.0
 10
2651.067746881184
 20
2380.816458922749
 30
0.0
 10
2651.10686666758
 20
2380.973305794328
 30
0.0
 10
2650.857478029303
 20
2381.208576101694
 30
0.0
  0
LINE
  5
827E
330
A
100
AcDbEntity
  8
0
100
AcDbLine
 10
2651.189996213672
 20
2381.532072774323
 30
0.0
 11
2651.189996213672
 21
2381.737934293269
 31
0.0
  0
LINE
  5
827F
330
A
100
AcDbEntity
  8
0
100
AcDbLine
 10
2651.796352902817
 20
2381.698722575375
 30
0.0
 11
2651.796352902817
 21
2381.473255197482
 31
0.0
  0
SPLINE
  5
8280
330
A
100
AcDbEntity
  8
0
100
AcDbSpline
210
0.0
220
0.0
230
1.0
 70
     8
 71
     3
 72
     8
 73
     4
 74
     0
 42
0.00000001
 43
0.0000000001
 40
0.0
 40
0.0
 40
0.0
 40
0.0
 40
1.0
 40
1.0
 40
1.0
 40
1.0
 10
2651.189996213672
 20
2381.532072774323
 30
0.0
 10
2651.361145279156
 20
2381.30660539643
 30
0.0
 10
2651.600753970834
 20
2381.316408325904
 30
0.0
 10
2651.801242876116
 20
2381.473255197482
 30
0.0
  0
LINE
  5
8281
330
A
100
AcDbEntity
  8
0
100
AcDbLine
 10
2652.079971354191
 20
2381.19877317222
 30
0.0
 11
2652.300020152671
 21
2381.19877317222
 31
0.0
  0
LINE
  5
8282
330
A
100
AcDbEntity
  8
0
100
AcDbLine
 10
2652.304910125971
 20
2380.581188615383
 30
0.0
 11
2652.08486132749
 21
2380.581188615383
 31
0.0
  0
SPLINE
  5
8283
330
A
100
AcDbEntity
  8
0
100
AcDbSpline
210
0.0
220
0.0
230
1.0
 70
     8
 71
     3
 72
     8
 73
     4
 74
     0
 42
0.00000001
 43
0.0000000001
 40
0.0
 40
0.0
 40
0.0
 40
0.0
 40
1.0
 40
1.0
 40
1.0
 40
1.0
 10
2652.079971354191
 20
2381.19877317222
 30
0.0
 10
2651.928382181905
 20
2381.012517512222
 30
0.0
 10
2651.928382181905
 20
2380.767444275381
 30
0.0
 10
2652.079971354191
 20
2380.571385685909
 30
0.0
  0
LINE
  5
8284
330
A
100
AcDbEntity
  8
0
100
AcDbLine
 10
2651.796352902817
 20
2380.24788901328
 30
0.0
 11
2651.796352902817
 21
2380.081239212229
 31
0.0
  0
LINE
  5
8285
330
A
100
AcDbEntity
  8
0
100
AcDbLine
 10
2651.131316534078
 20
2380.081239212229
 30
0.0
 11
2651.131316534078
 21
2380.306706590122
 31
0.0
  0
LINE
  5
8286
330
A
100
AcDbEntity
  8
0
100
AcDbLine
 10
2651.796352902817
 20
2380.24788901328
 30
0.0
 11
2651.757233116421
 21
2380.306706590122
 31
0.0
  0
LINE
  5
8287
330
A
100
AcDbEntity
  8
0
100
AcDbLine
 10
2651.757233116421
 20
2380.306706590122
 30
0.0
 11
2651.64476373053
 21
2380.365524166964
 31
0.0
  0
LINE
  5
8288
330
A
100
AcDbEntity
  8
0
100
AcDbLine
 10
2651.64476373053
 20
2380.365524166964
 30
0.0
 11
2651.586084050936
 21
2380.414538814331
 31
0.0
  0
LINE
  5
8289
330
A
100
AcDbEntity
  8
0
100
AcDbLine
 10
2651.586084050936
 20
2380.414538814331
 30
0.0
 11
2651.414934985452
 21
2380.414538814331
 31
0.0
  0
LINE
  5
828A
330
A
100
AcDbEntity
  8
0
100
AcDbLine
 10
2651.414934985452
 20
2380.414538814331
 30
0.0
 11
2651.307355572862
 21
2380.365524166964
 31
0.0
  0
LINE
  5
828B
330
A
100
AcDbEntity
  8
0
100
AcDbLine
 10
2651.307355572862
 20
2380.365524166964
 30
0.0
 11
2651.253565866567
 21
2380.365524166964
 31
0.0
  0
LINE
  5
828C
330
A
100
AcDbEntity
  8
0
100
AcDbLine
 10
2651.253565866567
 20
2380.365524166964
 30
0.0
 11
2651.136206507378
 21
2380.306706590122
 31
0.0
  0
LINE
  5
828D
330
A
100
AcDbEntity
  8
0
100
AcDbLine
 10
2650.466280165339
 20
2382.424139356422
 30
0.0
 11
2650.466280165339
 21
2382.247686625897
 31
0.0
  0
LINE
  5
828E
330
A
100
AcDbEntity
  8
0
100
AcDbLine
 10
2650.466280165339
 20
2382.247686625897
 30
0.0
 11
2651.185106240373
 21
2381.532072774323
 31
0.0
  0
LINE
  5
828F
330
A
100
AcDbEntity
  8
0
100
AcDbLine
 10
2649.977282835383
 20
2381.973204600636
 30
0.0
 11
2650.187551687265
 21
2381.914387023794
 31
0.0
  0
LINE
  5
8290
330
A
100
AcDbEntity
  8
0
100
AcDbLine
 10
2650.187551687265
 20
2381.914387023794
 30
0.0
 11
2650.857478029303
 21
2381.19877317222
 31
0.0
  0
LINE
  5
8291
330
A
100
AcDbEntity
  8
0
100
AcDbLine
 10
2652.969946494709
 20
2379.865574763809
 30
0.0
 11
2652.789017482626
 21
2379.865574763809
 31
0.0
  0
LINE
  5
8292
330
A
100
AcDbEntity
  8
0
100
AcDbLine
 10
2652.789017482626
 20
2379.865574763809
 30
0.0
 11
2652.079971354191
 21
2380.581188615383
 31
0.0
  0
LINE
  5
8293
330
A
100
AcDbEntity
  8
0
100
AcDbLine
 10
2653.028626174304
 20
2381.914387023794
 30
0.0
 11
2652.798797429225
 21
2381.914387023794
 31
0.0
  0
LINE
  5
8294
330
A
100
AcDbEntity
  8
0
100
AcDbLine
 10
2652.798797429225
 20
2381.914387023794
 30
0.0
 11
2652.079971354191
 21
2381.19877317222
 31
0.0
  0
LINE
  5
8295
330
A
100
AcDbEntity
  8
0
100
AcDbLine
 10
2650.417380432343
 20
2379.414640008024
 30
0.0
 11
2650.417380432343
 21
2379.581289809075
 31
0.0
  0
LINE
  5
8296
330
A
100
AcDbEntity
  8
0
100
AcDbLine
 10
2650.417380432343
 20
2379.581289809075
 30
0.0
 11
2651.126426560779
 21
2380.306706590122
 31
0.0
  0
LINE
  5
8297
330
A
100
AcDbEntity
  8
0
100
AcDbLine
 10
2652.52006895115
 20
2382.36532177958
 30
0.0
 11
2652.52006895115
 21
2382.198671978529
 31
0.0
  0
LINE
  5
8298
330
A
100
AcDbEntity
  8
0
100
AcDbLine
 10
2652.52006895115
 20
2382.198671978529
 30
0.0
 11
2651.801242876116
 21
2381.473255197482
 31
0.0
  0
LINE
  5
8299
330
A
100
AcDbEntity
  8
0
100
AcDbLine
 10
2649.977282835383
 20
2379.865574763809
 30
0.0
 11
2650.13865195427
 21
2379.865574763809
 31
0.0
  0
LINE
  5
829A
330
A
100
AcDbEntity
  8
0
100
AcDbLine
 10
2650.13865195427
 20
2379.865574763809
 30
0.0
 11
2650.857478029303
 21
2380.581188615383
 31
0.0
  0
LINE
  5
829B
330
A
100
AcDbEntity
  8
0
100
AcDbLine
 10
2652.52006895115
 20
2379.365625360655
 30
0.0
 11
2652.52006895115
 21
2379.532275161707
 31
0.0
  0
LINE
  5
829C
330
A
100
AcDbEntity
  8
0
100
AcDbLine
 10
2652.52006895115
 20
2379.532275161707
 30
0.0
 11
2651.801242876116
 21
2380.24788901328
 31
0.0
  0
LINE
  5
829D
330
A
100
AcDbEntity
  8
0
100
AcDbLine
 10
2652.52006895115
 20
2379.532275161707
 30
0.0
 11
2652.789017482626
 21
2379.865574763809
 31
0.0
  0
LINE
  5
829E
330
A
100
AcDbEntity
  8
0
100
AcDbLine
 10
2652.793907455925
 20
2381.914387023794
 30
0.0
 11
2652.52495892445
 21
2382.198671978529
 31
0.0
  0
LINE
  5
829F
330
A
100
AcDbEntity
  8
0
100
AcDbLine
 10
2650.133761980969
 20
2379.865574763809
 30
0.0
 11
2650.412490459044
 21
2379.581289809075
 31
0.0
  0
LINE
  5
82A0
330
A
100
AcDbEntity
  8
0
100
AcDbLine
 10
2650.466280165339
 20
2382.247686625897
 30
0.0
 11
2650.197331633864
 21
2381.914387023794
 31
0.0
  0
CIRCLE
  5
8316
330
A
100
AcDbEntity
  8
0
100
AcDbCircle
 10
2682.466279705097
 20
2380.888751933318
 30
0.0
 40
3.0
  0
CIRCLE
  5
8317
330
A
100
AcDbEntity
  8
0
100
AcDbCircle
 10
2651.466279705097
 20
2380.888751933318
 30
0.0
 40
3.0
  0
CIRCLE
  5
8318
330
A
100
AcDbEntity
  8
0
100
AcDbCircle
 10
2651.466279705097
 20
1605.888751933317
 30
0.0
 40
3.0
  0
CIRCLE
  5
8319
330
A
100
AcDbEntity
  8
0
100
AcDbCircle
 10
2682.466279705097
 20
1605.888751933317
 30
0.0
 40
3.0
  0
LINE
  5
835C
330
A
100
AcDbEntity
  8
用紙枠
100
AcDbLine
 10
0.0
 20
0.0
 30
0.0
 11
5940.0
 21
0.0
 31
0.0
  0
LINE
  5
835D
330
A
100
AcDbEntity
  8
用紙枠
100
AcDbLine
 10
5940.0
 20
0.0
 30
0.0
 11
5940.0
 21
4200.0
 31
0.0
  0
LINE
  5
835E
330
A
100
AcDbEntity
  8
用紙枠
100
AcDbLine
 10
5940.0
 20
4200.0
 30
0.0
 11
0.0
 21
4200.0
 31
0.0
  0
LINE
  5
835F
330
A
100
AcDbEntity
  8
用紙枠
100
AcDbLine
 10
0.0
 20
4200.0
 30
0.0
 11
0.0
 21
0.0
 31
0.0
  0
LINE
  5
836A
330
A
100
AcDbEntity
  8
0
100
AcDbLine
 10
2341.466279705098
 20
2392.513763171526
 30
0.0
 11
2341.466279705098
 21
2592.748763171526
 31
0.0
  0
LINE
  5
836B
330
A
100
AcDbEntity
  8
0
100
AcDbLine
 10
782.4662797050978
 20
2392.513763171526
 30
0.0
 11
782.4662797050978
 21
2592.748763171526
 31
0.0
  0
LINE
  5
836C
330
A
100
AcDbEntity
  8
0
100
AcDbLine
 10
2271.466279705098
 20
2592.388763171526
 30
0.0
 11
852.4662797050977
 21
2592.388763171526
 31
0.0
  0
LINE
  5
8370
330
A
100
AcDbEntity
  8
0
100
AcDbLine
 10
2341.591279705098
 20
2392.388763171526
 30
0.0
 11
2441.826279705098
 21
2392.388763171526
 31
0.0
  0
LINE
  5
8371
330
A
100
AcDbEntity
  8
0
100
AcDbLine
 10
2341.591279705098
 20
1594.388751933317
 30
0.0
 11
2441.826279705098
 21
1594.388751933317
 31
0.0
  0
LINE
  5
8372
330
A
100
AcDbEntity
  8
0
100
AcDbLine
 10
2441.466279705098
 20
2322.388763171526
 30
0.0
 11
2441.466279705098
 21
1664.388751933318
 31
0.0
  0
LINE
  5
8376
330
A
100
AcDbEntity
  8
0
100
AcDbLine
 10
2641.466279705098
 20
2392.513751933318
 30
0.0
 11
2641.466279705098
 21
2592.748751933318
 31
0.0
  0
LINE
  5
8377
330
A
100
AcDbEntity
  8
0
100
AcDbLine
 10
2687.466279705098
 20
2392.513751933318
 30
0.0
 11
2687.466279705098
 21
2592.748751933318
 31
0.0
  0
LINE
  5
8378
330
A
100
AcDbEntity
  8
0
100
AcDbLine
 10
2571.466279705098
 20
2592.388751933318
 30
0.0
 11
2501.466279705098
 21
2592.388751933318
 31
0.0
  0
LINE
  5
8379
330
A
100
AcDbEntity
  8
0
100
AcDbLine
 10
2757.466279705099
 20
2592.388751933318
 30
0.0
 11
2960.136734250552
 21
2592.388751933318
 31
0.0
  0
LINE
  5
837A
330
A
100
AcDbEntity
  8
0
100
AcDbLine
 10
2641.466279705098
 20
2592.388751933318
 30
0.0
 11
2687.466279705098
 21
2592.388751933318
 31
0.0
  0
LINE
  5
8394
330
A
100
AcDbEntity
  8
0
100
AcDbLine
 10
3655.0
 20
2543.388757552423
 30
0.0
 11
5155.0
 21
2543.388757552423
 31
0.0
  0
LINE
  5
8395
330
A
100
AcDbEntity
  8
0
100
AcDbLine
 10
3655.0
 20
2443.388757552423
 30
0.0
 11
5155.0
 21
2443.388757552423
 31
0.0
  0
LINE
  5
8396
330
A
100
AcDbEntity
  8
0
100
AcDbLine
 10
3655.0
 20
2343.388757552423
 30
0.0
 11
5155.0
 21
2343.388757552423
 31
0.0
  0
LINE
  5
8397
330
A
100
AcDbEntity
  8
0
100
AcDbLine
 10
3655.0
 20
2243.388757552422
 30
0.0
 11
5155.0
 21
2243.388757552422
 31
0.0
  0
LINE
  5
8398
330
A
100
AcDbEntity
  8
0
100
AcDbLine
 10
3655.0
 20
2143.388757552422
 30
0.0
 11
5155.0
 21
2143.388757552422
 31
0.0
  0
LINE
  5
8399
330
A
100
AcDbEntity
  8
0
100
AcDbLine
 10
3655.0
 20
2043.388757552422
 30
0.0
 11
5155.0
 21
2043.388757552422
 31
0.0
  0
LINE
  5
839A
330
A
100
AcDbEntity
  8
0
100
AcDbLine
 10
3655.0
 20
1943.388757552422
 30
0.0
 11
5155.0
 21
1943.388757552422
 31
0.0
  0
LINE
  5
839B
330
A
100
AcDbEntity
  8
0
100
AcDbLine
 10
3655.0
 20
1843.388757552421
 30
0.0
 11
5155.0
 21
1843.388757552421
 31
0.0
  0
LINE
  5
839C
330
A
100
AcDbEntity
  8
0
100
AcDbLine
 10
3655.0
 20
1743.388757552422
 30
0.0
 11
5155.0
 21
1743.388757552422
 31
0.0
  0
LINE
  5
839D
330
A
100
AcDbEntity
  8
0
100
AcDbLine
 10
3655.0
 20
1643.388757552421
 30
0.0
 11
5155.0
 21
1643.388757552421
 31
0.0
  0
LINE
  5
839E
330
A
100
AcDbEntity
  8
0
100
AcDbLine
 10
3655.0
 20
1543.388757552422
 30
0.0
 11
5155.0
 21
1543.388757552422
 31
0.0
  0
LINE
  5
839F
330
A
100
AcDbEntity
  8
0
100
AcDbLine
 10
3655.0
 20
1443.388757552422
 30
0.0
 11
5155.0
 21
1443.388757552422
 31
0.0
  0
LINE
  5
83A0
330
A
100
AcDbEntity
  8
0
100
AcDbLine
 10
3655.0
 20
2543.388757552423
 30
0.0
 11
3655.0
 21
1443.388757552422
 31
0.0
  0
LINE
  5
83A1
330
A
100
AcDbEntity
  8
0
100
AcDbLine
 10
4355.0
 20
2543.388757552423
 30
0.0
 11
4355.0
 21
1443.388757552422
 31
0.0
  0
LINE
  5
83A2
330
A
100
AcDbEntity
  8
0
100
AcDbLine
 10
5155.0
 20
2543.388757552423
 30
0.0
 11
5155.0
 21
1443.388757552422
 31
0.0
  0
LINE
  5
83A3
330
A
100
AcDbEntity
  8
0
 62
     8
 60
     1
370
     0
100
AcDbLine
 10
3655.0
 20
2543.388757552423
 30
0.0
 11
3655.0
 21
2543.388757552423
 31
0.0
  0
LINE
  5
83A4
330
A
100
AcDbEntity
  8
図面枠
370
    50
100
AcDbLine
 10
5740.0
 20
200.0
 30
0.0
 11
5740.0
 21
4000.0
 31
0.0
  0
LINE
  5
83A5
330
A
100
AcDbEntity
  8
図面枠
370
    50
100
AcDbLine
 10
5740.0
 20
4000.0
 30
0.0
 11
400.0
 21
4000.0
 31
0.0
  0
LINE
  5
83A6
330
A
100
AcDbEntity
  8
図面枠
370
    50
100
AcDbLine
 10
400.0
 20
4000.0
 30
0.0
 11
400.0
 21
200.0
 31
0.0
  0
LINE
  5
83A7
330
A
100
AcDbEntity
  8
図面枠
370
    50
100
AcDbLine
 10
400.0
 20
200.0
 30
0.0
 11
5740.0
 21
200.0
 31
0.0
  0
TEXT
  5
83A8
330
A
100
AcDbEntity
  8
0
100
AcDbText
 10
4674.659090909091
 20
1473.729666643331
 30
0.0
 40
40.0
  1
15.0kg
100
AcDbText
  0
TEXT
  5
83A9
330
A
100
AcDbEntity
  8
0
100
AcDbText
 10
3658.0
 20
1473.047848461513
 30
0.0
 40
40.0
  1
  質量
100
AcDbText
  0
TEXT
  5
83AA
330
A
100
AcDbEntity
  8
0
100
AcDbText
 10
4536.022727272727
 20
1576.116030279695
 30
0.0
 40
40.0
  1
1,559x798x46ｍｍ
100
AcDbText
  0
TEXT
  5
83AB
330
A
100
AcDbEntity
  8
0
100
AcDbText
 10
3658.0
 20
1573.047848461513
 30
0.0
 40
40.0
  1
  外形寸法（WxHxD）
100
AcDbText
  0
TEXT
  5
83AD
330
A
100
AcDbEntity
  8
0
100
AcDbText
 10
3658.0
 20
1672.934212097876
 30
0.0
 40
40.0
  1
  最大システム電圧
100
AcDbText
  0
TEXT
  5
83AF
330
A
100
AcDbEntity
  8
0
100
AcDbText
 10
3658.0
 20
1772.252393916058
 30
0.0
 40
40.0
  1
  公称短絡電流
100
AcDbText
  0
TEXT
  5
83B1
330
A
100
AcDbEntity
  8
0
100
AcDbText
 10
3658.0
 20
1872.479666643331
 30
0.0
 40
40.0
  1
  公称開放電圧
100
AcDbText
  0
TEXT
  5
83B3
330
A
100
AcDbEntity
  8
0
100
AcDbText
 10
3658.0
 20
1972.593303006968
 30
0.0
 40
40.0
  1
  公称最大出力動作電流
100
AcDbText
  0
TEXT
  5
83B5
330
A
100
AcDbEntity
  8
0
100
AcDbText
 10
3658.0
 20
2072.593303006968
 30
0.0
 40
40.0
  1
  公称最大出力動作電圧
100
AcDbText
  0
TEXT
  5
83B6
330
A
100
AcDbEntity
  8
0
100
AcDbText
 10
4688.522727272728
 20
2173.388757552422
 30
0.0
 40
40.0
  1
265W
100
AcDbText
  0
TEXT
  5
83B7
330
A
100
AcDbEntity
  8
0
100
AcDbText
 10
3658.0
 20
2172.479666643331
 30
0.0
 40
40.0
  1
  公称最大出力
100
AcDbText
  0
TEXT
  5
83B8
330
A
100
AcDbEntity
  8
0
100
AcDbText
 10
4690.34090909091
 20
2273.388757552422
 30
0.0
 40
40.0
  1
21.3%%%
100
AcDbText
  0
TEXT
  5
83B9
330
A
100
AcDbEntity
  8
0
100
AcDbText
 10
3658.0
 20
2272.252393916059
 30
0.0
 40
40.0
  1
  最大モジュール変換効率
100
AcDbText
  0
TEXT
  5
83BB
330
A
100
AcDbEntity
  8
0
100
AcDbText
 10
3658.0
 20
2372.934212097877
 30
0.0
 40
40.0
  1
  セル種類
100
AcDbText
  0
TEXT
  5
83BC
330
A
100
AcDbEntity
  8
0
100
AcDbText
 10
4582.045454545455
 20
2473.388757552423
 30
0.0
 40
40.0
  1
SPR-X21-265
100
AcDbText
  0
TEXT
  5
83BD
330
A
100
AcDbEntity
  8
0
100
AcDbText
 10
3658.0
 20
2471.911484825149
 30
0.0
 40
40.0
  1
  型式
100
AcDbText
  0
TEXT
  5
83BE
330
A
100
AcDbEntity
  8
0
100
AcDbText
 10
2843.886734250553
 20
2612.388751933318
 30
0.0
 40
70.0
  1
46
100
AcDbText
  0
LINE
  5
83BF
330
A
100
AcDbEntity
  8
0
100
AcDbLine
 10
2757.466279705099
 20
2580.722085266652
 30
0.0
 11
2687.466279705098
 21
2592.388751933318
 31
0.0
  0
LINE
  5
83C0
330
A
100
AcDbEntity
  8
0
100
AcDbLine
 10
2757.466279705099
 20
2604.055418599985
 30
0.0
 11
2687.466279705098
 21
2592.388751933318
 31
0.0
  0
LINE
  5
83C1
330
A
100
AcDbEntity
  8
0
100
AcDbLine
 10
2687.466279705098
 20
2592.388751933318
 30
0.0
 11
2757.466279705099
 21
2592.388751933318
 31
0.0
  0
LINE
  5
83C2
330
A
100
AcDbEntity
  8
0
100
AcDbLine
 10
2571.466279705098
 20
2604.055418599985
 30
0.0
 11
2641.466279705098
 21
2592.388751933318
 31
0.0
  0
LINE
  5
83C3
330
A
100
AcDbEntity
  8
0
100
AcDbLine
 10
2571.466279705098
 20
2580.722085266652
 30
0.0
 11
2641.466279705098
 21
2592.388751933318
 31
0.0
  0
LINE
  5
83C4
330
A
100
AcDbEntity
  8
0
100
AcDbLine
 10
2641.466279705098
 20
2592.388751933318
 30
0.0
 11
2571.466279705098
 21
2592.388751933318
 31
0.0
  0
TEXT
  5
83C5
330
A
100
AcDbEntity
  8
0
100
AcDbText
 10
2421.466279705097
 20
1916.030803006966
 30
0.0
 40
70.0
  1
798
 50
90.0
100
AcDbText
  0
LINE
  5
83C6
330
A
100
AcDbEntity
  8
0
100
AcDbLine
 10
2453.132946371765
 20
1664.388751933318
 30
0.0
 11
2441.466279705098
 21
1594.388751933317
 31
0.0
  0
LINE
  5
83C7
330
A
100
AcDbEntity
  8
0
100
AcDbLine
 10
2429.799613038432
 20
1664.388751933318
 30
0.0
 11
2441.466279705098
 21
1594.388751933317
 31
0.0
  0
LINE
  5
83C8
330
A
100
AcDbEntity
  8
0
100
AcDbLine
 10
2441.466279705098
 20
1594.388751933317
 30
0.0
 11
2441.466279705098
 21
1664.388751933318
 31
0.0
  0
LINE
  5
83C9
330
A
100
AcDbEntity
  8
0
100
AcDbLine
 10
2429.799613038432
 20
2322.388763171526
 30
0.0
 11
2441.466279705098
 21
2392.388763171526
 31
0.0
  0
LINE
  5
83CA
330
A
100
AcDbEntity
  8
0
100
AcDbLine
 10
2453.132946371765
 20
2322.388763171526
 30
0.0
 11
2441.466279705098
 21
2392.388763171526
 31
0.0
  0
LINE
  5
83CB
330
A
100
AcDbEntity
  8
0
100
AcDbLine
 10
2441.466279705098
 20
2392.388763171526
 30
0.0
 11
2441.466279705098
 21
2322.388763171526
 31
0.0
  0
TEXT
  5
83CC
330
A
100
AcDbEntity
  8
0
100
AcDbText
 10
1457.562870614189
 20
2612.388763171527
 30
0.0
 40
70.0
  1
1559
100
AcDbText
  0
LINE
  5
83CD
330
A
100
AcDbEntity
  8
0
100
AcDbLine
 10
852.4662797050977
 20
2580.72209650486
 30
0.0
 11
782.4662797050978
 21
2592.388763171526
 31
0.0
  0
LINE
  5
83CE
330
A
100
AcDbEntity
  8
0
100
AcDbLine
 10
852.4662797050977
 20
2604.055429838193
 30
0.0
 11
782.4662797050978
 21
2592.388763171526
 31
0.0
  0
LINE
  5
83CF
330
A
100
AcDbEntity
  8
0
100
AcDbLine
 10
782.4662797050978
 20
2592.388763171526
 30
0.0
 11
852.4662797050977
 21
2592.388763171526
 31
0.0
  0
LINE
  5
83D0
330
A
100
AcDbEntity
  8
0
100
AcDbLine
 10
2271.466279705098
 20
2604.055429838193
 30
0.0
 11
2341.466279705098
 21
2592.388763171526
 31
0.0
  0
LINE
  5
83D1
330
A
100
AcDbEntity
  8
0
100
AcDbLine
 10
2271.466279705098
 20
2580.72209650486
 30
0.0
 11
2341.466279705098
 21
2592.388763171526
 31
0.0
  0
LINE
  5
83D2
330
A
100
AcDbEntity
  8
0
100
AcDbLine
 10
2341.466279705098
 20
2592.388763171526
 30
0.0
 11
2271.466279705098
 21
2592.388763171526
 31
0.0
  0
TEXT
  5
847A
330
A
100
AcDbEntity
  8
0
100
AcDbText
 10
4686.477272727272
 20
2073.388757552422
 30
0.0
 40
40.0
  1
44.0V
100
AcDbText
  0
TEXT
  5
847B
330
A
100
AcDbEntity
  8
0
100
AcDbText
 10
4685.795454545455
 20
1973.388757552422
 30
0.0
 40
40.0
  1
6.02A
100
AcDbText
  0
TEXT
  5
847C
330
A
100
AcDbEntity
  8
0
100
AcDbText
 10
4686.477272727272
 20
1873.388757552422
 30
0.0
 40
40.0
  1
51.8V
100
AcDbText
  0
TEXT
  5
847D
330
A
100
AcDbEntity
  8
0
100
AcDbText
 10
4685.795454545455
 20
1773.388757552422
 30
0.0
 40
40.0
  1
6.42A
100
AcDbText
  0
TEXT
  5
847E
330
A
100
AcDbEntity
  8
0
100
AcDbText
 10
4686.477272727272
 20
1673.388757552421
 30
0.0
 40
40.0
  1
600V
100
AcDbText
  0
TEXT
  5
84E8
330
A
100
AcDbEntity
  8
0
100
AcDbText
 10
4405.113636363636
 20
2372.252393916059
 30
0.0
 40
40.0
  1
単結晶(バックコンタクト方式)
100
AcDbText
  0
VIEWPORT
  5
2C13
102
{ACAD_XDICTIONARY
360
2C14
102
}
330
B
100
AcDbEntity
 67
     1
  8
0
  6
Continuous
370
     0
100
AcDbViewport
 10
145.330337524414
 20
103.4700949029312
 30
0.0
 40
366.1848134449208
 41
225.4710986155243
 68
     1
 69
     1
 12
145.330337524414
 22
103.4700949029312
 13
0.0
 23
0.0
 14
10.0
 24
10.0
 15
10.0
 25
10.0
 16
0.0
 26
0.0
 36
1.0
 17
0.0
 27
0.0
 37
0.0
 42
50.0
 43
0.0
 44
0.0
 45
225.4710986155243
 50
0.0
 51
0.0
 72
   100
 90
   557088
  1

281
     0
 71
     1
 74
     0
110
0.0
120
0.0
130
0.0
111
1.0
121
0.0
131
0.0
112
0.0
122
1.0
132
0.0
 79
     0
146
0.0
  0
VIEWPORT
  5
2C17
102
{ACAD_XDICTIONARY
360
2C18
102
}
330
B
100
AcDbEntity
 67
     1
  8
0
  6
Continuous
370
     0
100
AcDbViewport
 10
145.3303314447403
 20
101.8328338861465
 30
0.0
 40
232.5285303115845
 41
162.9325342178344
 68
     2
 69
     2
 12
5809.965151642899
 22
1137.040193552135
 13
0.0
 23
0.0
 14
10.0
 24
10.0
 15
10.0
 25
10.0
 16
0.0
 26
0.0
 36
1.0
 17
0.0
 27
0.0
 37
0.0
 42
50.0
 43
0.0
 44
0.0
 45
8205.767713711226
 50
0.0
 51
0.0
 72
   100
 90
   557088
  1

281
     0
 71
     1
 74
     0
110
0.0
120
0.0
130
0.0
111
1.0
121
0.0
131
0.0
112
0.0
122
1.0
132
0.0
 79
     0
146
0.0
  0
ENDSEC
  0
SECTION
  2
OBJECTS
  0
DICTIONARY
  5
19
330
0
100
AcDbDictionary
281
     1
  3
ACAD_2007HEADERVARS_RT
350
85AC
  3
ACAD_CIP_PREVIOUS_PRODUCT_INFO
350
160
  3
ACAD_COLOR
350
158
  3
ACAD_DETAILVIEWSTYLE
350
155
  3
ACAD_GROUP
350
1A
  3
ACAD_IMAGE_VARS
350
149
  3
ACAD_LAYOUT
350
1E
  3
ACAD_MATERIAL
350
141
  3
ACAD_MLEADERSTYLE
350
153
  3
ACAD_MLINESTYLE
350
1B
  3
ACAD_PLOTSETTINGS
350
22
  3
ACAD_PLOTSTYLENAME
350
1F
  3
ACAD_SCALELIST
350
11F
  3
ACAD_SECTIONVIEWSTYLE
350
156
  3
ACAD_TABLESTYLE
350
145
  3
ACAD_VISUALSTYLE
350
106
  3
ACAD_WIPEOUT_VARS
350
23
  3
ACDB_RECOMPOSE_DATA
350
85AA
  3
AcDbVariableDictionary
350
859F
  3
APPDATA
350
147
  3
DWGPROPS
350
85AB
  0
DICTIONARY
  5
342
330
2
100
AcDbDictionary
280
     1
281
     1
  3
ACAD_LAYERSTATES
360
343
  0
DICTIONARY
  5
8599
330
14
100
AcDbDictionary
280
     1
281
     1
  3
ADSK_XREC_LAYER_RECONCILED
360
859A
  0
DICTIONARY
  5
859B
330
FBA
100
AcDbDictionary
280
     1
281
     1
  3
ADSK_XREC_LAYER_RECONCILED
360
859C
  0
DICTIONARY
  5
859D
330
FBB
100
AcDbDictionary
280
     1
281
     1
  3
ADSK_XREC_LAYER_RECONCILED
360
859E
  0
DICTIONARY
  5
14C
330
A
100
AcDbDictionary
280
     1
281
     1
  3
ACAD_SORTENTS
360
14D
  0
DICTIONARY
  5
2C14
330
2C13
100
AcDbDictionary
280
     1
281
     1
  3
ACAD_XREC_ROUNDTRIP
360
85EB
  3
ASDK_XREC_ANNOTATION_SCALE_INFO
360
2C15
  0
DICTIONARY
  5
2C18
330
2C17
100
AcDbDictionary
280
     1
281
     1
  3
ACAD_XREC_ROUNDTRIP
360
85EC
  3
ASDK_XREC_ANNOTATION_SCALE_INFO
360
2C19
  0
DICTIONARY
  5
85AC
102
{ACAD_REACTORS
330
19
102
}
330
19
100
AcDbDictionary
281
     1
  3
INTERFERECOLOR
350
85AD
  0
XRECORD
  5
160
102
{ACAD_REACTORS
330
19
102
}
330
19
100
AcDbXrecord
280
     1
300
ACDLT
300
2013
300
ACDLT_F_S
  0
DICTIONARY
  5
158
102
{ACAD_REACTORS
330
19
102
}
330
19
100
AcDbDictionary
281
     1
  0
DICTIONARY
  5
155
102
{ACAD_REACTORS
330
19
102
}
330
19
100
AcDbDictionary
281
     1
  3
Metric50
350
15B
  0
DICTIONARY
  5
1A
102
{ACAD_REACTORS
330
19
102
}
330
19
100
AcDbDictionary
281
     1
  0
RASTERVARIABLES
  5
149
102
{ACAD_REACTORS
330
19
102
}
330
19
100
AcDbRasterVariables
 90
        0
 70
     1
 71
     1
 72
     0
  0
DICTIONARY
  5
1E
102
{ACAD_REACTORS
330
19
102
}
330
19
100
AcDbDictionary
281
     1
  3
Layout1
350
21
  3
Model
350
20
  0
DICTIONARY
  5
141
102
{ACAD_REACTORS
330
19
102
}
330
19
100
AcDbDictionary
281
     1
  3
ByBlock
350
143
  3
ByLayer
350
142
  3
Global
350
144
  0
DICTIONARY
  5
153
102
{ACAD_REACTORS
330
19
102
}
330
19
100
AcDbDictionary
281
     1
  3
Standard
350
159
  0
DICTIONARY
  5
1B
102
{ACAD_REACTORS
330
19
102
}
330
19
100
AcDbDictionary
281
     1
  3
Standard
350
1C
  0
DICTIONARY
  5
22
102
{ACAD_REACTORS
330
19
102
}
330
19
100
AcDbDictionary
281
     1
  3
A4
350
12F4
  3
PDF
350
18F4
  3
モデル【縦】
350
1915
  0
ACDBDICTIONARYWDFLT
  5
1F
102
{ACAD_REACTORS
330
19
102
}
330
19
100
AcDbDictionary
281
     1
  3
Normal
350
1D
100
AcDbDictionaryWithDefault
340
1D
  0
DICTIONARY
  5
11F
102
{ACAD_REACTORS
330
19
102
}
330
19
100
AcDbDictionary
281
     1
  3
A0
350
120
  3
A1
350
121
  3
A2
350
122
  3
A3
350
123
  3
A4
350
124
  3
A5
350
125
  3
A6
350
126
  3
A7
350
127
  3
A8
350
128
  3
A9
350
129
  3
B0
350
12A
  3
B1
350
12B
  3
B2
350
12C
  3
B3
350
12D
  3
B4
350
12E
  3
B5
350
12F
  3
B6
350
130
  3
B7
350
131
  3
B8
350
132
  3
B9
350
133
  3
C0
350
134
  3
C1
350
135
  3
C2
350
136
  3
C3
350
137
  3
C4
350
138
  3
C5
350
139
  3
C6
350
13A
  3
C7
350
13B
  3
C8
350
13C
  3
C9
350
13D
  3
D0
350
13E
  3
D1
350
13F
  3
D2
350
140
  0
DICTIONARY
  5
156
102
{ACAD_REACTORS
330
19
102
}
330
19
100
AcDbDictionary
281
     1
  3
Metric50
350
15A
  0
DICTIONARY
  5
145
102
{ACAD_REACTORS
330
19
102
}
330
19
100
AcDbDictionary
281
     1
  3
Standard
350
146
  0
DICTIONARY
  5
106
102
{ACAD_REACTORS
330
19
102
}
330
19
100
AcDbDictionary
281
     1
  3
2dWireframe
350
10B
  3
Basic
350
10E
  3
Brighten
350
112
  3
ColorChange
350
116
  3
Conceptual
350
110
  3
Dim
350
111
  3
EdgeColorOff
350
119
  3
Facepattern
350
115
  3
Flat
350
107
  3
FlatWithEdges
350
108
  3
Gouraud
350
109
  3
GouraudWithEdges
350
10A
  3
Hidden
350
10D
  3
JitterOff
350
117
  3
Linepattern
350
114
  3
OverhangOff
350
118
  3
Realistic
350
10F
  3
Shaded
350
11E
  3
Shaded with edges
350
11D
  3
Shades of Gray
350
11A
  3
Sketchy
350
11B
  3
Thicken
350
113
  3
Wireframe
350
10C
  3
X-Ray
350
11C
  0
WIPEOUTVARIABLES
  5
23
330
19
100
AcDbWipeoutVariables
 70
     1
  0
XRECORD
  5
85AA
102
{ACAD_REACTORS
330
19
102
}
330
19
100
AcDbXrecord
280
     1
 90
        1
330
146
  0
DICTIONARY
  5
859F
102
{ACAD_REACTORS
330
19
102
}
330
19
100
AcDbDictionary
281
     1
  3
CANNOSCALE
350
85A4
  3
CMLEADERSTYLE
350
85A1
  3
CTABLESTYLE
350
85A0
  3
CVIEWDETAILSTYLE
350
85A2
  3
CVIEWSECTIONSTYLE
350
85A3
  3
DIMASSOC
350
85A7
  3
INDEXCTL
350
85A6
  3
SORTENTS
350
85A5
  3
XCLIPFRAME
350
85A8
  0
DICTIONARY
  5
147
102
{ACAD_REACTORS
330
19
102
}
330
19
100
AcDbDictionary
281
     1
  0
XRECORD
  5
85AB
102
{ACAD_REACTORS
330
19
102
}
330
19
100
AcDbXrecord
280
     1
  1
DWGPROPS COOKIE
  2

  3

  4

  6

  7

  8
z0354tc0
  9

300
=
301
=
302
=
303
=
304
=
305
=
306
=
307
=
308
=
309
=
 40
0.8320236921296297
 41
2456743.597399803
 42
2458326.597879873
  1

 90
        0
  0
DICTIONARY
  5
343
102
{ACAD_REACTORS
330
342
102
}
330
342
100
AcDbDictionary
281
     1
  0
XRECORD
  5
859A
102
{ACAD_REACTORS
330
8599
102
}
330
8599
100
AcDbXrecord
280
     1
290
     1
  0
XRECORD
  5
859C
102
{ACAD_REACTORS
330
859B
102
}
330
859B
100
AcDbXrecord
280
     1
290
     1
  0
XRECORD
  5
859E
102
{ACAD_REACTORS
330
859D
102
}
330
859D
100
AcDbXrecord
280
     1
290
     1
  0
SORTENTSTABLE
  5
14D
102
{ACAD_REACTORS
330
14C
102
}
330
14C
100
AcDbSortentsTable
330
A
331
768C
  5
76E9
331
761E
  5
767B
331
76C7
  5
7724
331
761A
  5
7677
331
7688
  5
76E5
331
7684
  5
76E1
331
76C3
  5
7720
331
7616
  5
7673
331
7655
  5
76B2
331
7680
  5
76DD
331
7612
  5
766F
331
7651
  5
76AE
331
7857
  5
81FA
331
7853
  5
81F4
331
8277
  5
83A7
331
81FD
  5
8278
331
784F
  5
81F0
331
81BE
  5
823B
331
8273
  5
83A3
331
83A5
  5
6C6D
331
81F9
  5
8274
331
81BA
  5
8235
331
8234
  5
836C
331
784B
  5
81EC
331
83A1
  5
7655
331
826F
  5
839F
331
77DE
  5
783B
331
8316
  5
83CF
331
81F1
  5
826E
331
8230
  5
835E
331
839D
  5
7651
331
826B
  5
839B
331
77DA
  5
7837
331
77D6
  5
7833
331
7815
  5
81AE
331
8399
  5
764D
331
77D2
  5
782F
331
776D
  5
77CA
331
7811
  5
81AA
331
76FF
  5
775C
331
76FB
  5
7758
331
7769
  5
77C6
331
77A4
  5
7801
331
76F7
  5
7754
331
7736
  5
7793
331
7765
  5
77C2
331
7761
  5
77BE
331
77A0
  5
77FD
331
76F3
  5
7750
331
7732
  5
778F
331
76BF
  5
771C
331
764D
  5
76AA
331
767C
  5
76D9
331
76BB
  5
7718
331
6C6E
  5
765D
331
76B7
  5
7714
331
7649
  5
76A6
331
7678
  5
76D5
331
76B3
  5
7710
331
7645
  5
76A2
331
7674
  5
76D1
331
7670
  5
76CD
331
7641
  5
769E
331
7847
  5
81E8
331
81B6
  5
8231
331
7843
  5
81DE
331
81B2
  5
822F
331
8267
  5
8397
331
81ED
  5
826A
331
822C
  5
82A3
331
8228
  5
829F
331
783F
  5
81DA
331
81AE
  5
822B
331
8395
  5
7649
331
81E9
  5
8260
331
81AA
  5
8227
331
81E5
  5
825C
331
8224
  5
829B
331
783B
  5
81D6
331
83D0
  5
820E
331
829E
  5
83CC
331
77CE
  5
782B
331
780D
  5
81A6
331
829A
  5
83C8
331
81E1
  5
8258
331
7809
  5
81A2
331
83CC
  5
8214
331
825B
  5
8391
331
77CA
  5
7827
331
8379
  5
7661
331
77C6
  5
7823
331
7805
  5
8029
331
83C8
  5
8206
331
77C2
  5
781F
331
7801
  5
8025
331
772E
  5
778B
331
775D
  5
77BA
331
779C
  5
77F9
331
76EF
  5
774C
331
76EB
  5
7748
331
772A
  5
7787
331
7759
  5
77B6
331
7798
  5
77F5
331
7794
  5
77F1
331
76E7
  5
7744
331
7726
  5
7783
331
7755
  5
77B2
331
7751
  5
77AE
331
7790
  5
77ED
331
76E3
  5
7740
331
7722
  5
777F
331
76AF
  5
770C
331
763D
  5
769A
331
766C
  5
76C9
331
76AB
  5
7708
331
7639
  5
7696
331
7668
  5
76C5
331
76A7
  5
7704
331
76A3
  5
7700
331
7635
  5
7692
331
7664
  5
76C1
331
7660
  5
76BD
331
FCA
  5
6C75
331
7631
  5
768E
331
81A6
  5
821D
331
7837
  5
81D2
331
7833
  5
81CE
331
81A2
  5
8219
331
8257
  5
838D
331
8296
  5
83C4
331
821C
  5
8299
331
8218
  5
8295
331
782F
  5
81CA
331
8253
  5
8389
331
8292
  5
83C0
331
81D9
  5
8256
331
83C4
  5
7668
331
81D5
  5
8252
331
8214
  5
8291
331
782B
  5
81C6
331
83C0
  5
766A
331
824F
  5
8385
331
828E
  5
83BC
331
8371
  5
81FC
331
77BE
  5
781B
331
77FD
  5
7D6F
331
828A
  5
83B8
331
81D1
  5
824E
331
8210
  5
828D
331
77F9
  5
7856
331
83BC
  5
7633
331
824B
  5
8381
331
77BA
  5
7817
331
77B6
  5
7813
331
77F5
  5
7852
331
83B8
  5
7637
331
77B2
  5
780F
331
77F1
  5
784E
331
771E
  5
777B
331
774D
  5
77AA
331
778C
  5
77E9
331
76DF
  5
773C
331
76DB
  5
7738
331
771A
  5
7777
331
7749
  5
77A6
331
7788
  5
77E5
331
7784
  5
77E1
331
76D7
  5
7734
331
7716
  5
7773
331
7745
  5
77A2
331
7741
  5
779E
331
7780
  5
77DD
331
76D3
  5
7730
331
7712
  5
776F
331
769F
  5
76FC
331
762D
  5
768A
331
765C
  5
76B9
331
769B
  5
76F8
331
7629
  5
7686
331
7658
  5
76B5
331
7697
  5
76F4
331
7693
  5
76F0
331
7625
  5
7682
331
7621
  5
767E
331
7827
  5
81C2
331
7823
  5
81BE
331
8286
  5
83B4
331
81CD
  5
824A
331
820C
  5
8289
331
8247
  5
837D
331
8208
  5
8285
331
781F
  5
81BA
331
8243
  5
8379
331
8282
  5
83B0
331
835D
  5
FCA
331
81C9
  5
8246
331
81C5
  5
8242
331
8204
  5
8281
331
781B
  5
81B6
331
823F
  5
8375
331
827E
  5
83AC
331
77AE
  5
780B
331
77ED
  5
784A
331
8112
  5
765C
331
81C1
  5
823E
331
8200
  5
827D
331
77E9
  5
7846
331
823B
  5
8371
331
77AA
  5
7807
331
77E5
  5
7842
331
8319
  5
83D2
331
83A8
  5
7647
331
77E1
  5
783E
331
770E
  5
776B
331
773D
  5
779A
331
777C
  5
77D9
331
76CF
  5
772C
331
770A
  5
7767
331
7739
  5
7796
331
7778
  5
77D5
331
76CB
  5
7728
331
7774
  5
77D1
331
7706
  5
7763
331
7770
  5
77CD
331
7702
  5
775F
331
768F
  5
76EC
331
761D
  5
767A
331
768B
  5
76E8
331
76C6
  5
7723
331
7619
  5
7676
331
7687
  5
76E4
331
7683
  5
76E0
331
76C2
  5
771F
331
7615
  5
7672
331
7654
  5
76B1
331
7650
  5
76AD
331
7611
  5
766E
331
7856
  5
81F9
331
7852
  5
81F3
331
8276
  5
83A6
331
81FC
  5
8277
331
81F8
  5
8273
331
8272
  5
83A2
331
784E
  5
81EF
331
83A4
  5
6C6C
331
81BD
  5
823A
331
81B9
  5
8234
331
81F4
  5
8271
331
8233
  5
836B
331
83A0
  5
7654
331
826E
  5
839E
331
77DD
  5
783A
331
784A
  5
81EB
331
81F0
  5
826D
331
77D9
  5
7836
331
839C
  5
7650
331
826A
  5
839A
331
77D5
  5
7832
331
7814
  5
81AD
331
8398
  5
764C
331
77D1
  5
782E
331
776C
  5
77C9
331
7810
  5
81A9
331
76FE
  5
775B
331
77A7
  5
7804
331
76FA
  5
7757
331
7768
  5
77C5
331
7764
  5
77C1
331
77A3
  5
7800
331
76F6
  5
7753
331
7735
  5
7792
331
7760
  5
77BD
331
76F2
  5
774F
331
7731
  5
778E
331
767F
  5
76DC
331
76BE
  5
771B
331
764C
  5
76A9
331
767B
  5
76D8
331
76BA
  5
7717
331
6C6D
  5
765B
331
76B6
  5
7713
331
7648
  5
76A5
331
7677
  5
76D4
331
7673
  5
76D0
331
76B2
  5
770F
331
7644
  5
76A1
331
7640
  5
769D
331
7846
  5
81E7
331
81B5
  5
8230
331
822F
  5
835D
331
822B
  5
82A2
331
7842
  5
81DD
331
81B1
  5
822E
331
8266
  5
8396
331
81EC
  5
8269
331
8227
  5
829E
331
783E
  5
81D9
331
81AD
  5
822A
331
8394
  5
7648
331
81E8
  5
825F
331
81A9
  5
8220
331
81E4
  5
825B
331
8223
  5
829A
331
783A
  5
81D5
331
780C
  5
81A5
331
83CF
  5
8213
331
825E
  5
8394
331
77CD
  5
782A
331
829D
  5
83CB
331
8299
  5
83C7
331
7808
  5
819F
331
83CB
  5
8203
331
825A
  5
8390
331
77C9
  5
7826
331
77C5
  5
7822
331
7804
  5
8028
331
8378
  5
7660
331
779F
  5
77FC
331
77C1
  5
781E
331
7800
  5
8024
331
772D
  5
778A
331
775C
  5
77B9
331
779B
  5
77F8
331
76EE
  5
774B
331
7797
  5
77F4
331
76EA
  5
7747
331
7729
  5
7786
331
7758
  5
77B5
331
7793
  5
77F0
331
76E6
  5
7743
331
7725
  5
7782
331
7754
  5
77B1
331
7750
  5
77AD
331
76E2
  5
773F
331
7721
  5
777E
331
766F
  5
76CC
331
76AE
  5
770B
331
763C
  5
7699
331
766B
  5
76C8
331
76AA
  5
7707
331
76A6
  5
7703
331
7638
  5
7695
331
7667
  5
76C4
331
76A2
  5
76FF
331
7634
  5
7691
331
7663
  5
76C0
331
7630
  5
768D
331
7836
  5
81D1
331
81A5
  5
821C
331
7832
  5
81CD
331
81A1
  5
8218
331
8256
  5
838C
331
8295
  5
83C3
331
83C7
  5
8205
331
821B
  5
8298
331
8217
  5
8294
331
782E
  5
81C9
331
83C3
  5
7667
331
8252
  5
8388
331
8291
  5
83BF
331
81D8
  5
8255
331
81D4
  5
8251
331
8213
  5
8290
331
782A
  5
81C5
331
83BF
  5
7669
331
824E
  5
8384
331
828D
  5
83BB
331
77BD
  5
781A
331
77FC
  5
79A2
331
8370
  5
81FB
331
8289
  5
83B7
331
81D0
  5
824D
331
77F8
  5
7855
331
836C
  5
820A
331
83BB
  5
7634
331
824A
  5
8380
331
77B9
  5
7816
331
77B5
  5
7812
331
77F4
  5
7851
331
778F
  5
77EC
331
77B1
  5
780E
331
77F0
  5
784D
331
771D
  5
777A
331
774C
  5
77A9
331
778B
  5
77E8
331
76DE
  5
773B
331
76DA
  5
7737
331
7719
  5
7776
331
7748
  5
77A5
331
7787
  5
77E4
331
7783
  5
77E0
331
76D6
  5
7733
331
7715
  5
7772
331
7744
  5
77A1
331
7740
  5
779D
331
76D2
  5
772F
331
7711
  5
776E
331
765F
  5
76BC
331
769E
  5
76FB
331
762C
  5
7689
331
765B
  5
76B8
331
769A
  5
76F7
331
7628
  5
7685
331
7696
  5
76F3
331
7692
  5
76EF
331
7624
  5
7681
331
7620
  5
767D
331
820F
  5
828C
331
7826
  5
81C1
331
7822
  5
81BD
331
8246
  5
837C
331
8285
  5
83B3
331
81CC
  5
8249
331
83B7
  5
7638
331
820B
  5
8288
331
8207
  5
8284
331
781E
  5
81B9
331
8242
  5
8378
331
8281
  5
83AF
331
81C8
  5
8245
331
835C
  5
FC9
331
83B3
  5
763C
331
81C4
  5
8241
331
8203
  5
8280
331
781A
  5
81B5
331
83AF
  5
7640
331
823E
  5
8374
331
827D
  5
83AB
331
77AD
  5
780A
331
77EC
  5
7849
331
81C0
  5
823D
331
77E8
  5
7845
331
83AB
  5
7644
331
823A
  5
8370
331
77A9
  5
7806
331
77E4
  5
7841
331
8318
  5
83D1
331
777F
  5
77DC
331
77E0
  5
783D
331
770D
  5
776A
331
773C
  5
7799
331
777B
  5
77D8
331
76CE
  5
772B
331
76CA
  5
7727
331
7709
  5
7766
331
7738
  5
7795
331
7777
  5
77D4
331
7773
  5
77D0
331
7705
  5
7762
331
7701
  5
775E
331
768E
  5
76EB
331
761C
  5
7679
331
768A
  5
76E7
331
76C5
  5
7722
331
7618
  5
7675
331
7657
  5
76B4
331
7686
  5
76E3
331
7682
  5
76DF
331
76C1
  5
771E
331
7614
  5
7671
331
7653
  5
76B0
331
7610
  5
766D
331
7855
  5
81F8
331
81FF
  5
827C
331
7851
  5
81F2
331
8275
  5
83A5
331
83A7
  5
6C74
331
81FB
  5
8276
331
81F7
  5
8272
331
8236
  5
836E
331
8271
  5
83A1
331
784D
  5
81EE
331
83A3
  5
7657
331
81BC
  5
8239
331
81B8
  5
8233
331
81F3
  5
8270
331
8232
  5
836A
331
839F
  5
7653
331
826D
  5
839D
331
77DC
  5
7839
331
7849
  5
81EA
331
77D8
  5
7835
331
7817
  5
81B0
331
839B
  5
764F
331
8269
  5
8399
331
77D4
  5
7831
331
776F
  5
77CC
331
7813
  5
81AC
331
77D0
  5
782D
331
76FD
  5
775A
331
776B
  5
77C8
331
77A6
  5
7803
331
76F9
  5
7756
331
7767
  5
77C4
331
7763
  5
77C0
331
77A2
  5
77FF
331
76F5
  5
7752
331
7734
  5
7791
331
7730
  5
778D
331
76F1
  5
774E
331
764F
  5
76AC
331
767E
  5
76DB
331
76BD
  5
771A
331
6C6C
  5
765A
331
764B
  5
76A8
331
767A
  5
76D7
331
76B9
  5
7716
331
76B5
  5
7712
331
7647
  5
76A4
331
7676
  5
76D3
331
7672
  5
76CF
331
76B1
  5
770E
331
7643
  5
76A0
331
7845
  5
81E6
331
81EF
  5
826C
331
822E
  5
835C
331
822A
  5
82A1
331
7841
  5
81DC
331
81B0
  5
822D
331
8265
  5
8395
331
8397
  5
764B
331
81EB
  5
8262
331
81E7
  5
825E
331
8226
  5
829D
331
783D
  5
81D8
331
83D2
  5
8210
331
82A0
  5
83CE
331
780F
  5
81A8
331
81AC
  5
8229
331
81A8
  5
821F
331
81E3
  5
825A
331
7839
  5
81D4
331
780B
  5
81A4
331
83CE
  5
8212
331
825D
  5
8393
331
77CC
  5
7829
331
829C
  5
83CA
331
8298
  5
83C6
331
77C8
  5
7825
331
7807
  5
819E
331
83CA
  5
8202
331
8259
  5
838F
331
77C4
  5
7821
331
7803
  5
8027
331
775F
  5
77BC
331
779E
  5
77FB
331
77C0
  5
781D
331
772C
  5
7789
331
775B
  5
77B8
331
779A
  5
77F7
331
76ED
  5
774A
331
7796
  5
77F3
331
76E9
  5
7746
331
7728
  5
7785
331
7757
  5
77B4
331
7753
  5
77B0
331
7792
  5
77EF
331
76E5
  5
7742
331
7724
  5
7781
331
76E1
  5
773E
331
7720
  5
777D
331
763F
  5
769C
331
766E
  5
76CB
331
76AD
  5
770A
331
763B
  5
7698
331
766A
  5
76C7
331
76A9
  5
7706
331
76A5
  5
7702
331
1230
  5
7617
331
7637
  5
7694
331
7666
  5
76C3
331
7662
  5
76BF
331
76A1
  5
76FE
331
7633
  5
7690
331
7835
  5
81D0
331
81A4
  5
821B
331
821A
  5
8297
331
7831
  5
81CC
331
8255
  5
838B
331
8294
  5
83C2
331
81A0
  5
8217
331
8377
  5
765F
331
83C6
  5
8204
331
8216
  5
8293
331
782D
  5
81C8
331
83C2
  5
7666
331
8251
  5
8387
331
8290
  5
83BE
331
77FF
  5
8023
331
81D7
  5
8254
331
81D3
  5
8250
331
8212
  5
828F
331
7829
  5
81C4
331
77FB
  5
798A
331
83BE
  5
766C
331
824D
  5
8383
331
77BC
  5
7819
331
828C
  5
83BA
331
8288
  5
83B6
331
77F7
  5
7854
331
836B
  5
8209
331
8249
  5
837F
331
77B8
  5
7815
331
77B4
  5
7811
331
77F3
  5
7850
331
774F
  5
77AC
331
778E
  5
77EB
331
77B0
  5
780D
331
771C
  5
7779
331
774B
  5
77A8
331
778A
  5
77E7
331
76DD
  5
773A
331
7786
  5
77E3
331
76D9
  5
7736
331
7718
  5
7775
331
7747
  5
77A4
331
7782
  5
77DF
331
76D5
  5
7732
331
7714
  5
7771
331
7743
  5
77A0
331
76D1
  5
772E
331
7710
  5
776D
331
765E
  5
76BB
331
769D
  5
76FA
331
762F
  5
768C
331
762B
  5
7688
331
765A
  5
76B7
331
7699
  5
76F6
331
7695
  5
76F2
331
7627
  5
7684
331
7691
  5
76EE
331
7623
  5
7680
331
7825
  5
81C0
331
8174
  5
8215
331
81CF
  5
824C
331
820E
  5
828B
331
7821
  5
81BC
331
8245
  5
837B
331
8284
  5
83B2
331
81CB
  5
8248
331
835F
  5
1368
331
83B6
  5
7639
331
820A
  5
8287
331
8206
  5
8283
331
781D
  5
81B8
331
8241
  5
8377
331
8280
  5
83AE
331
77EF
  5
784C
331
81C7
  5
8244
331
81C3
  5
8240
331
8202
  5
827F
331
7819
  5
81B2
331
823D
  5
8373
331
827C
  5
83AA
331
77AC
  5
7809
331
77EB
  5
7848
331
8278
  5
83A8
331
77E7
  5
7844
331
83AA
  5
7645
331
8239
  5
836F
331
77A8
  5
7805
331
77E3
  5
7840
331
773F
  5
779C
331
777E
  5
77DB
331
770C
  5
7769
331
773B
  5
7798
331
777A
  5
77D7
331
76CD
  5
772A
331
76C9
  5
7726
331
7708
  5
7765
331
7776
  5
77D3
331
7772
  5
77CF
331
7704
  5
7761
331
7700
  5
775D
331
768D
  5
76EA
331
761F
  5
767C
331
761B
  5
7678
331
7689
  5
76E6
331
76C4
  5
7721
331
7617
  5
7674
331
7656
  5
76B3
331
7685
  5
76E2
331
7681
  5
76DE
331
76C0
  5
771D
331
7613
  5
7670
331
7652
  5
76AF
331
7854
  5
81F7
331
81FE
  5
827B
331
7850
  5
81F1
331
81BF
  5
823C
331
8274
  5
83A4
331
83A6
  5
6C71
331
81FA
  5
8275
331
81BB
  5
8236
331
8235
  5
836D
331
784C
  5
81ED
331
8270
  5
83A0
331
8317
  5
83D0
331
77DF
  5
783C
331
83A2
  5
7656
331
81F2
  5
826F
331
8231
  5
835F
331
839E
  5
7652
331
826C
  5
839C
331
77DB
  5
7838
331
7848
  5
81E9
331
8268
  5
8398
331
77D7
  5
7834
331
7816
  5
81AF
331
839A
  5
764E
331
77D3
  5
7830
331
776E
  5
77CB
331
7812
  5
81AB
331
76FC
  5
7759
331
776A
  5
77C7
331
77A5
  5
7802
331
76F8
  5
7755
331
7737
  5
7794
331
7766
  5
77C3
331
7762
  5
77BF
331
77A1
  5
77FE
331
76F4
  5
7751
331
7733
  5
7790
331
76F0
  5
774D
331
764E
  5
76AB
331
767D
  5
76DA
331
76BC
  5
7719
331
6C6B
  5
7658
331
764A
  5
76A7
331
7679
  5
76D6
331
76B8
  5
7715
331
76B4
  5
7711
331
7646
  5
76A3
331
7675
  5
76D2
331
7671
  5
76CE
331
76B0
  5
770D
331
7642
  5
769F
331
81B7
  5
8232
331
7844
  5
81E5
331
81EE
  5
826B
331
822D
  5
82A4
331
8229
  5
82A0
331
7840
  5
81DB
331
81AF
  5
822C
331
8396
  5
764A
331
81EA
  5
8261
331
81E6
  5
825D
331
8225
  5
829C
331
783C
  5
81D7
331
83D1
  5
820F
331
829F
  5
83CD
331
77CF
  5
782C
331
780E
  5
81A7
331
81AB
  5
8228
331
829B
  5
83C9
331
81E2
  5
8259
331
780A
  5
81A3
331
83CD
  5
8211
331
825C
  5
8392
331
77CB
  5
7828
331
7838
  5
81D3
331
77C7
  5
7824
331
7806
  5
802A
331
837A
  5
7662
331
83C9
  5
8201
331
8258
  5
838E
331
77C3
  5
7820
331
7802
  5
8026
331
772F
  5
778C
331
775E
  5
77BB
331
779D
  5
77FA
331
76EC
  5
7749
331
772B
  5
7788
331
775A
  5
77B7
331
7799
  5
77F6
331
7795
  5
77F2
331
76E8
  5
7745
331
7727
  5
7784
331
7756
  5
77B3
331
7752
  5
77AF
331
7791
  5
77EE
331
76E4
  5
7741
331
7723
  5
7780
331
76E0
  5
773D
331
763E
  5
769B
331
766D
  5
76CA
331
76AC
  5
7709
331
763A
  5
7697
331
7669
  5
76C6
331
76A8
  5
7705
331
76A4
  5
7701
331
7636
  5
7693
331
7665
  5
76C2
331
7661
  5
76BE
331
76A0
  5
76FD
331
7632
  5
768F
331
81A7
  5
821E
331
7834
  5
81CF
331
8297
  5
83C5
331
81A3
  5
821A
331
8219
  5
8296
331
7830
  5
81CB
331
819F
  5
8216
331
8254
  5
838A
331
8293
  5
83C1
331
81DA
  5
8257
331
8376
  5
765E
331
83C5
  5
8207
331
81D6
  5
8253
331
8215
  5
8292
331
782C
  5
81C7
331
83C1
  5
766B
331
8250
  5
8386
331
828F
  5
83BD
331
77BF
  5
781C
331
77FE
  5
8022
331
8372
  5
81FD
331
81D2
  5
824F
331
8211
  5
828E
331
7828
  5
81C3
331
77FA
  5
7857
331
83BD
  5
7632
331
824C
  5
8382
331
77BB
  5
7818
331
828B
  5
83B9
331
77B7
  5
7814
331
77F6
  5
7853
331
836A
  5
8208
331
83B9
  5
7636
331
8248
  5
837E
331
77B3
  5
7810
331
77F2
  5
784F
331
771F
  5
777C
331
774E
  5
77AB
331
778D
  5
77EA
331
771B
  5
7778
331
774A
  5
77A7
331
7789
  5
77E6
331
76DC
  5
7739
331
7785
  5
77E2
331
76D8
  5
7735
331
7717
  5
7774
331
7746
  5
77A3
331
7742
  5
779F
331
7781
  5
77DE
331
76D4
  5
7731
331
7713
  5
7770
331
76D0
  5
772D
331
762E
  5
768B
331
765D
  5
76BA
331
769C
  5
76F9
331
762A
  5
7687
331
7659
  5
76B6
331
7698
  5
76F5
331
7694
  5
76F1
331
7626
  5
7683
331
7690
  5
76ED
331
7622
  5
767F
331
7824
  5
81BF
331
8287
  5
83B5
331
81CE
  5
824B
331
820D
  5
828A
331
8209
  5
8286
331
7820
  5
81BB
331
8244
  5
837A
331
8283
  5
83B1
331
81CA
  5
8247
331
835E
  5
1230
331
83B5
  5
763A
331
8205
  5
8282
331
781C
  5
81B7
331
8113
  5
7659
331
83B1
  5
763E
331
8240
  5
8376
331
827F
  5
83AD
331
77AF
  5
780C
331
77EE
  5
784B
331
81C6
  5
8243
331
81C2
  5
823F
331
8201
  5
827E
331
7818
  5
81B1
331
77EA
  5
7847
331
83AD
  5
7642
331
823C
  5
8372
331
77AB
  5
7808
331
827B
  5
83A9
331
77E6
  5
7843
331
83A9
  5
7646
331
77E2
  5
783F
331
773E
  5
779B
331
777D
  5
77DA
331
770F
  5
776C
331
770B
  5
7768
331
773A
  5
7797
331
7779
  5
77D6
331
76CC
  5
7729
331
7775
  5
77D2
331
76C8
  5
7725
331
7707
  5
7764
331
7771
  5
77CE
331
7703
  5
7760
  0
XRECORD
  5
85EB
102
{ACAD_REACTORS
330
2C14
102
}
330
2C14
100
AcDbXrecord
280
     1
102
SHADEPLOT
 70
     0
  0
XRECORD
  5
2C15
102
{ACAD_REACTORS
330
2C14
102
}
330
2C14
100
AcDbXrecord
280
     1
 90
        1
340
120
  0
XRECORD
  5
85EC
102
{ACAD_REACTORS
330
2C18
102
}
330
2C18
100
AcDbXrecord
280
     1
102
SHADEPLOT
 70
     0
  0
XRECORD
  5
2C19
102
{ACAD_REACTORS
330
2C18
102
}
330
2C18
100
AcDbXrecord
280
     1
 90
        1
340
120
  0
XRECORD
  5
85AD
102
{ACAD_REACTORS
330
85AC
102
}
330
85AC
100
AcDbXrecord
280
     1
1004
1800000001000000000000C0000000000000000000000000
  0
ACDBDETAILVIEWSTYLE
  5
15B
102
{ACAD_REACTORS
330
155
102
}
330
155
100
AcDbModelDocViewStyle
 70
     0
  3
Metric50
290
     0
100
AcDbDetailViewStyle
 70
     0
 71
     0
 90
        3
 71
     1
340
17
 40
5.0
340
0
 40
5.0
300

 40
0.0
280
     1
 71
     2
340
13
 90
       25
 71
     3
340
17
 40
5.0
 90
        0
 40
15.0
 90
        1
300
%<\AcVar ViewDetailId>% (%<\AcVar ViewScale \f "%sn">%)
 71
     4
340
13
 90
       25
340
13
 90
       25
280
     0
  0
LAYOUT
  5
21
102
{ACAD_XDICTIONARY
360
85B0
102
}
102
{ACAD_REACTORS
330
1E
102
}
330
1E
100
AcDbPlotSettings
  1

  2
PrimoPDF
  4
A4
  6

 40
3.174999952316283
 41
3.174999952316283
 42
3.175003051757812
 43
3.17498779296875
 44
210.0156707763672
 45
297.0106506347656
 46
0.0
 47
0.0
 48
0.0
 49
0.0
140
0.0
141
0.0
142
1.0
143
1.0
 70
     0
 72
     1
 73
     1
 74
     0
  7
monochrome.ctb
 75
     0
147
1.0
148
0.0
149
0.0
100
AcDbLayout
  1
Layout1
 70
     0
 71
     1
 10
-3.17498779296875
 20
-3.174999952316283
 11
293.8356628417969
 21
206.8406708240509
 12
0.0
 22
0.0
 32
0.0
 14
29.06606628894805
 24
20.36656677722931
 34
0.0
 15
261.5945966005325
 25
183.2991009950638
 35
0.0
146
0.0
 13
0.0
 23
0.0
 33
0.0
 16
1.0
 26
0.0
 36
0.0
 17
0.0
 27
1.0
 37
0.0
 76
     0
330
B
331
2C13
1001
ACAD_PSEXT
1000
PrimoPDF
1000
PrimoPDF
1000
PrimoPort:
1000

1070
     0
  0
LAYOUT
  5
20
102
{ACAD_XDICTIONARY
360
85AE
102
}
102
{ACAD_REACTORS
330
1E
102
}
330
1E
100
AcDbPlotSettings
  1

  2
Adobe PDF.pc3
  4
A4
  6

 40
3.174999952316283
 41
3.174999952316283
 42
3.17498779296875
 43
3.175003051757812
 44
297.0318298339844
 45
209.9733276367186
 46
1.3501414826938
 47
0.0
 48
0.0
 49
0.0
140
2970.0
141
2100.0
142
1.0
143
10.31316036013357
 70
 11412
 72
     1
 73
     0
 74
     4
  7
monochrome.ctb
 75
     0
147
0.096963487920307
148
0.0
149
0.0
100
AcDbLayout
  1
Model
 70
     0
 71
     0
 10
0.0
 20
0.0
 11
0.0
 21
0.0
 12
0.0
 22
0.0
 32
0.0
 14
109.6911512586805
 24
82.2371853298611
 34
0.0
 15
147.8504069010416
 25
96.46284586588542
 35
0.0
146
0.0
 13
0.0
 23
0.0
 33
0.0
 16
0.0
 26
0.0
 36
0.0
 17
0.0
 27
0.0
 37
0.0
 76
     0
330
A
331
15
1001
ACAD_PSEXT
1000
Adobe PDF.pc3
1000
Adobe PDF Converter
1000
Documents\*.pdf
1000

1070
     0
  0
MATERIAL
  5
143
102
{ACAD_XDICTIONARY
360
857F
102
}
102
{ACAD_REACTORS
330
141
102
}
330
141
100
AcDbMaterial
  1
ByBlock
 73
     1
 78
     1
172
     1
176
     1
270
     1
274
     1
  0
MATERIAL
  5
142
102
{ACAD_XDICTIONARY
360
857D
102
}
102
{ACAD_REACTORS
330
141
102
}
330
141
100
AcDbMaterial
  1
ByLayer
 73
     1
 78
     1
172
     1
176
     1
270
     1
274
     1
  0
MATERIAL
  5
144
102
{ACAD_XDICTIONARY
360
8581
102
}
102
{ACAD_REACTORS
330
141
102
}
330
141
100
AcDbMaterial
  1
Global
 73
     1
 78
     1
172
     1
176
     1
270
     1
274
     1
  0
MLEADERSTYLE
  5
159
102
{ACAD_XDICTIONARY
360
85E3
102
}
102
{ACAD_REACTORS
330
153
102
}
330
153
100
AcDbMLeaderStyle
170
     2
171
     1
172
     0
 90
        2
 40
0.0
 41
0.0
173
     1
 91
-1056964608
340
11
 92
       -2
290
     1
 42
2.0
291
     1
 43
0.36
  3
Standard
 44
4.0
300

342
17
174
     1
178
     6
175
     1
176
     0
 93
-1056964608
 45
4.0
292
     0
297
     0
 46
4.0
 94
-1056964608
 47
1.0
 49
1.0
140
1.0
293
     1
141
0.0
294
     1
177
     0
142
1.0
295
     0
296
     0
143
0.125
1001
ACAD_MLEADERVER
1070
     2
  0
MLINESTYLE
  5
1C
102
{ACAD_REACTORS
330
1B
102
}
330
1B
100
AcDbMlineStyle
  2
STANDARD
 70
     0
  3

 62
     0
 51
90.0
 52
90.0
 71
     2
 49
0.5
 62
   256
  6
BYLAYER
 49
-0.5
 62
   256
  6
BYLAYER
  0
PLOTSETTINGS
  5
12F4
102
{ACAD_XDICTIONARY
360
85E5
102
}
102
{ACAD_REACTORS
330
22
102
}
330
22
100
AcDbPlotSettings
  1
A4
  2
PrimoPDF
  4
A4
  6

 40
3.174999952316283
 41
3.174999952316283
 42
3.17498779296875
 43
3.175003051757812
 44
297.0106506347656
 45
210.0156707763672
 46
-3.169668555259703
 47
-3.167166113853453
 48
0.0
 49
0.0
140
2970.0
141
2100.0
142
1.0
143
10.0
 70
 11300
 72
     1
 73
     0
 74
     4
  7
monochrome.ctb
 75
     0
147
1.0
148
0.0
149
0.0
1001
ACAD_PSEXT
1000
PrimoPDF
1000
PrimoPDF
1000
PrimoPort:
1000

1070
     0
  0
PLOTSETTINGS
  5
18F4
102
{ACAD_XDICTIONARY
360
85E7
102
}
102
{ACAD_REACTORS
330
22
102
}
330
22
100
AcDbPlotSettings
  1
PDF
  2
PrimoPDF【縦】.pc3
  4
A4
  6

 40
3.174999952316283
 41
3.174999952316283
 42
3.175003051757812
 43
3.17498779296875
 44
210.0156707763672
 45
297.0106506347656
 46
-3.167166113853453
 47
-3.169668555259703
 48
0.0
 49
0.0
140
2970.0
141
2100.0
142
1.0
143
10.0
 70
 11268
 72
     1
 73
     1
 74
     4
  7
monochrome.ctb
 75
     0
147
1.0
148
0.0
149
0.0
1001
ACAD_PSEXT
1000
PrimoPDF【縦】.pc3
1000
PrimoPDF
1000
PrimoPort:
1000

1070
     0
  0
PLOTSETTINGS
  5
1915
102
{ACAD_XDICTIONARY
360
85E9
102
}
102
{ACAD_REACTORS
330
22
102
}
330
22
100
AcDbPlotSettings
  1
モデル【縦】
  2
Canon LBP6300【モデル縦】.pc3
  4
A4
  6

 40
5.789083003997802
 41
5.789072513580322
 42
5.789077758789062
 43
5.789093017578125
 44
209.9733276367186
 45
296.9259948730469
 46
-5.802416563034057
 47
-5.826085329055786
 48
0.0
 49
0.0
140
2970.0
141
2100.0
142
1.0
143
10.0
 70
 11268
 72
     1
 73
     1
 74
     4
  7
monochrome.ctb
 75
     0
147
1.0
148
0.0
149
0.0
1001
ACAD_PSEXT
1000
Canon LBP6300【モデル縦】.pc3
1000
Canon LBP6300
1000
IP_10.34.114.11
1000

1070
     0
  0
ACDBPLACEHOLDER
  5
1D
102
{ACAD_REACTORS
330
1F
102
}
330
1F
  0
SCALE
  5
120
102
{ACAD_REACTORS
330
11F
102
}
330
11F
100
AcDbScale
 70
     0
300
1:1
140
1.0
141
1.0
290
     1
  0
SCALE
  5
121
102
{ACAD_REACTORS
330
11F
102
}
330
11F
100
AcDbScale
 70
     0
300
1:2
140
1.0
141
2.0
290
     0
  0
SCALE
  5
122
102
{ACAD_REACTORS
330
11F
102
}
330
11F
100
AcDbScale
 70
     0
300
1:4
140
1.0
141
4.0
290
     0
  0
SCALE
  5
123
102
{ACAD_REACTORS
330
11F
102
}
330
11F
100
AcDbScale
 70
     0
300
1:5
140
1.0
141
5.0
290
     0
  0
SCALE
  5
124
102
{ACAD_REACTORS
330
11F
102
}
330
11F
100
AcDbScale
 70
     0
300
1:8
140
1.0
141
8.0
290
     0
  0
SCALE
  5
125
102
{ACAD_REACTORS
330
11F
102
}
330
11F
100
AcDbScale
 70
     0
300
1:10
140
1.0
141
10.0
290
     0
  0
SCALE
  5
126
102
{ACAD_REACTORS
330
11F
102
}
330
11F
100
AcDbScale
 70
     0
300
1:16
140
1.0
141
16.0
290
     0
  0
SCALE
  5
127
102
{ACAD_REACTORS
330
11F
102
}
330
11F
100
AcDbScale
 70
     0
300
1:20
140
1.0
141
20.0
290
     0
  0
SCALE
  5
128
102
{ACAD_REACTORS
330
11F
102
}
330
11F
100
AcDbScale
 70
     0
300
1:30
140
1.0
141
30.0
290
     0
  0
SCALE
  5
129
102
{ACAD_REACTORS
330
11F
102
}
330
11F
100
AcDbScale
 70
     0
300
1:40
140
1.0
141
40.0
290
     0
  0
SCALE
  5
12A
102
{ACAD_REACTORS
330
11F
102
}
330
11F
100
AcDbScale
 70
     0
300
1:50
140
1.0
141
50.0
290
     0
  0
SCALE
  5
12B
102
{ACAD_REACTORS
330
11F
102
}
330
11F
100
AcDbScale
 70
     0
300
1:100
140
1.0
141
100.0
290
     0
  0
SCALE
  5
12C
102
{ACAD_REACTORS
330
11F
102
}
330
11F
100
AcDbScale
 70
     0
300
2:1
140
2.0
141
1.0
290
     0
  0
SCALE
  5
12D
102
{ACAD_REACTORS
330
11F
102
}
330
11F
100
AcDbScale
 70
     0
300
4:1
140
4.0
141
1.0
290
     0
  0
SCALE
  5
12E
102
{ACAD_REACTORS
330
11F
102
}
330
11F
100
AcDbScale
 70
     0
300
8:1
140
8.0
141
1.0
290
     0
  0
SCALE
  5
12F
102
{ACAD_REACTORS
330
11F
102
}
330
11F
100
AcDbScale
 70
     0
300
10:1
140
10.0
141
1.0
290
     0
  0
SCALE
  5
130
102
{ACAD_REACTORS
330
11F
102
}
330
11F
100
AcDbScale
 70
     0
300
100:1
140
100.0
141
1.0
290
     0
  0
SCALE
  5
131
102
{ACAD_REACTORS
330
11F
102
}
330
11F
100
AcDbScale
 70
     0
300
1/128" = 1'-0"
140
0.0078125
141
12.0
290
     0
  0
SCALE
  5
132
102
{ACAD_REACTORS
330
11F
102
}
330
11F
100
AcDbScale
 70
     0
300
1/64" = 1'-0"
140
0.015625
141
12.0
290
     0
  0
SCALE
  5
133
102
{ACAD_REACTORS
330
11F
102
}
330
11F
100
AcDbScale
 70
     0
300
1/32" = 1'-0"
140
0.03125
141
12.0
290
     0
  0
SCALE
  5
134
102
{ACAD_REACTORS
330
11F
102
}
330
11F
100
AcDbScale
 70
     0
300
1/16" = 1'-0"
140
0.0625
141
12.0
290
     0
  0
SCALE
  5
135
102
{ACAD_REACTORS
330
11F
102
}
330
11F
100
AcDbScale
 70
     0
300
3/32" = 1'-0"
140
0.09375
141
12.0
290
     0
  0
SCALE
  5
136
102
{ACAD_REACTORS
330
11F
102
}
330
11F
100
AcDbScale
 70
     0
300
1/8" = 1'-0"
140
0.125
141
12.0
290
     0
  0
SCALE
  5
137
102
{ACAD_REACTORS
330
11F
102
}
330
11F
100
AcDbScale
 70
     0
300
3/16" = 1'-0"
140
0.1875
141
12.0
290
     0
  0
SCALE
  5
138
102
{ACAD_REACTORS
330
11F
102
}
330
11F
100
AcDbScale
 70
     0
300
1/4" = 1'-0"
140
0.25
141
12.0
290
     0
  0
SCALE
  5
139
102
{ACAD_REACTORS
330
11F
102
}
330
11F
100
AcDbScale
 70
     0
300
3/8" = 1'-0"
140
0.375
141
12.0
290
     0
  0
SCALE
  5
13A
102
{ACAD_REACTORS
330
11F
102
}
330
11F
100
AcDbScale
 70
     0
300
1/2" = 1'-0"
140
0.5
141
12.0
290
     0
  0
SCALE
  5
13B
102
{ACAD_REACTORS
330
11F
102
}
330
11F
100
AcDbScale
 70
     0
300
3/4" = 1'-0"
140
0.75
141
12.0
290
     0
  0
SCALE
  5
13C
102
{ACAD_REACTORS
330
11F
102
}
330
11F
100
AcDbScale
 70
     0
300
1" = 1'-0"
140
1.0
141
12.0
290
     0
  0
SCALE
  5
13D
102
{ACAD_REACTORS
330
11F
102
}
330
11F
100
AcDbScale
 70
     0
300
1-1/2" = 1'-0"
140
1.5
141
12.0
290
     0
  0
SCALE
  5
13E
102
{ACAD_REACTORS
330
11F
102
}
330
11F
100
AcDbScale
 70
     0
300
3" = 1'-0"
140
3.0
141
12.0
290
     0
  0
SCALE
  5
13F
102
{ACAD_REACTORS
330
11F
102
}
330
11F
100
AcDbScale
 70
     0
300
6" = 1'-0"
140
6.0
141
12.0
290
     0
  0
SCALE
  5
140
102
{ACAD_REACTORS
330
11F
102
}
330
11F
100
AcDbScale
 70
     0
300
1'-0" = 1'-0"
140
12.0
141
12.0
290
     0
  0
ACDBSECTIONVIEWSTYLE
  5
15A
102
{ACAD_REACTORS
330
156
102
}
330
156
100
AcDbModelDocViewStyle
 70
     0
  3
Metric50
290
     0
100
AcDbSectionViewStyle
 70
     0
 71
     0
 90
      102
 71
     1
340
17
 40
5.0
340
0
340
0
 40
5.0
300
I, O, Q, S, X, Z
 40
10.0
 90
        0
 40
2.5
 90
        0
 71
     2
340
13
 90
       25
340
13
 90
       50
 40
5.0
 40
2.5
 40
5.0
 71
     3
340
17
 40
5.0
 90
        0
 40
15.0
 90
        1
300
%<\AcVar ViewSectionStartId>%-%<\AcVar ViewSectionEndId>% (%<\AcVar ViewScale \f "%sn">%)
 71
     4
300
ANSI31
 40
1.0
 90
        0
290
     0
290
     0
 90
        6
 40
0.0
 40
1.570796326794896
 40
0.2617993877991494
 40
1.308996938995747
 40
-0.2617993877991494
 40
1.832595714594045
  0
TABLESTYLE
  5
146
102
{ACAD_XDICTIONARY
360
CFA
102
}
102
{ACAD_REACTORS
330
145
102
}
330
145
100
AcDbTableStyle
  3
Standard
 70
     0
 71
     0
 40
1.5
 41
1.5
280
     0
281
     0
  7
Standard
140
4.5
170
     2
 62
     0
 63
     7
283
     0
274
    -2
284
     1
 64
     0
275
    -2
285
     1
 65
     0
276
    -2
286
     1
 66
     0
277
    -2
287
     1
 67
     0
278
    -2
288
     1
 68
     0
279
    -2
289
     1
 69
     0
  7
Standard
140
6.0
170
     5
 62
     0
 63
     7
283
     0
274
    -2
284
     1
 64
     0
275
    -2
285
     1
 65
     0
276
    -2
286
     1
 66
     0
277
    -2
287
     1
 67
     0
278
    -2
288
     1
 68
     0
279
    -2
289
     1
 69
     0
  7
Standard
140
4.5
170
     5
 62
     0
 63
     7
283
     0
274
    -2
284
     1
 64
     0
275
    -2
285
     1
 65
     0
276
    -2
286
     1
 66
     0
277
    -2
287
     1
 67
     0
278
    -2
288
     1
 68
     0
279
    -2
289
     1
 69
     0
  0
VISUALSTYLE
  5
10B
102
{ACAD_XDICTIONARY
360
85BA
102
}
102
{ACAD_REACTORS
330
106
102
}
330
106
100
AcDbVisualStyle
  2

 70
     4
 71
     0
 72
     2
 73
     0
 90
        0
 40
-0.6
 41
-30.0
 62
     5
 63
     7
 74
     1
 91
        4
 64
     7
 65
   257
 75
     1
175
     1
 42
1.0
 92
        0
 66
   257
 43
1.0
 76
     1
 77
     6
 78
     2
 67
     7
 79
     5
170
     0
171
     0
290
     0
174
     0
 93
        1
 44
0.0
173
     0
291
     0
 45
0.0
1001
ACAD
1000
AcDbSavedByObjectVersion
1070
     0
  0
VISUALSTYLE
  5
10E
102
{ACAD_XDICTIONARY
360
85C0
102
}
102
{ACAD_REACTORS
330
106
102
}
330
106
100
AcDbVisualStyle
  2

 70
     7
 71
     1
 72
     0
 73
     1
 90
        0
 40
-0.6
 41
-30.0
 62
     5
 63
     7
 74
     0
 91
        4
 64
     7
 65
   257
 75
     1
175
     1
 42
1.0
 92
        8
 66
     7
 43
1.0
 76
     1
 77
     6
 78
     2
 67
     7
 79
     5
170
     0
171
     0
290
     0
174
     0
 93
        1
 44
0.0
173
     0
291
     1
 45
0.0
1001
ACAD
1000
AcDbSavedByObjectVersion
1070
     0
  0
VISUALSTYLE
  5
112
102
{ACAD_XDICTIONARY
360
85C8
102
}
102
{ACAD_REACTORS
330
106
102
}
330
106
100
AcDbVisualStyle
  2

 70
    12
 71
     2
 72
     2
 73
     0
 90
        0
 40
-0.6
 41
-30.0
 62
     5
 63
     7
 74
     1
 91
        4
 64
     7
 65
   257
 75
     1
175
     1
 42
1.0
 92
        8
 66
     7
 43
1.0
 76
     1
 77
     6
 78
     2
 67
     7
 79
     5
170
     0
171
     0
290
     0
174
     0
 93
        1
 44
50.0
173
     0
291
     1
 45
0.0
1001
ACAD
1000
AcDbSavedByObjectVersion
1070
     0
  0
VISUALSTYLE
  5
116
102
{ACAD_XDICTIONARY
360
85D0
102
}
102
{ACAD_REACTORS
330
106
102
}
330
106
100
AcDbVisualStyle
  2

 70
    16
 71
     2
 72
     2
 73
     3
 90
        0
 40
-0.6
 41
-30.0
 62
     5
 63
     8
 74
     1
 91
        4
 64
     7
 65
   257
 75
     1
175
     1
 42
1.0
 92
        8
 66
     8
 43
1.0
 76
     1
 77
     6
 78
     2
 67
     7
 79
     5
170
     0
171
     0
290
     0
174
     0
 93
        1
 44
0.0
173
     0
291
     1
 45
0.0
1001
ACAD
1000
AcDbSavedByObjectVersion
1070
     0
  0
VISUALSTYLE
  5
110
102
{ACAD_XDICTIONARY
360
85C4
102
}
102
{ACAD_REACTORS
330
106
102
}
330
106
100
AcDbVisualStyle
  2

 70
     9
 71
     3
 72
     2
 73
     0
 90
        0
 40
-0.6
 41
-30.0
 62
     5
 63
     7
 74
     2
 91
        2
 64
     7
 65
   257
 75
     1
175
     1
 42
179.0
 92
        8
 66
     7
 43
1.0
 76
     1
 77
     6
 78
     2
 67
     7
 79
     3
170
     0
171
     0
290
     0
174
     0
 93
        1
 44
0.0
173
     0
291
     0
 45
0.0
1001
ACAD
1000
AcDbSavedByObjectVersion
1070
     0
  0
VISUALSTYLE
  5
111
102
{ACAD_XDICTIONARY
360
85C6
102
}
102
{ACAD_REACTORS
330
106
102
}
330
106
100
AcDbVisualStyle
  2

 70
    11
 71
     2
 72
     2
 73
     0
 90
        0
 40
-0.6
 41
-30.0
 62
     5
 63
     7
 74
     1
 91
        4
 64
     7
 65
   257
 75
     1
175
     1
 42
1.0
 92
        8
 66
     7
 43
1.0
 76
     1
 77
     6
 78
     2
 67
     7
 79
     5
170
     0
171
     0
290
     0
174
     0
 93
        1
 44
-50.0
173
     0
291
     1
 45
0.0
1001
ACAD
1000
AcDbSavedByObjectVersion
1070
     0
  0
VISUALSTYLE
  5
119
102
{ACAD_XDICTIONARY
360
85D6
102
}
102
{ACAD_REACTORS
330
106
102
}
330
106
100
AcDbVisualStyle
  2

 70
    22
 71
     2
 72
     2
 73
     0
 90
        0
 40
-0.6
 41
-30.0
 62
     5
 63
     7
 74
     1
 91
        4
 64
     7
 65
   257
 75
     1
175
     1
 42
1.0
 92
        8
 66
     7
 43
1.0
 76
     1
 77
     6
 78
     2
 67
     7
 79
     5
170
     0
171
     0
290
     0
174
     0
 93
        1
 44
0.0
173
     0
291
     1
 45
0.0
1001
ACAD
1000
AcDbSavedByObjectVersion
1070
     0
  0
VISUALSTYLE
  5
115
102
{ACAD_XDICTIONARY
360
85CE
102
}
102
{ACAD_REACTORS
330
106
102
}
330
106
100
AcDbVisualStyle
  2

 70
    15
 71
     2
 72
     2
 73
     0
 90
        0
 40
-0.6
 41
-30.0
 62
     5
 63
     7
 74
     1
 91
        4
 64
     7
 65
   257
 75
     1
175
     1
 42
1.0
 92
        8
 66
     7
 43
1.0
 76
     1
 77
     6
 78
     2
 67
     7
 79
     5
170
     0
171
     0
290
     0
174
     0
 93
        1
 44
0.0
173
     0
291
     1
 45
0.0
1001
ACAD
1000
AcDbSavedByObjectVersion
1070
     0
  0
VISUALSTYLE
  5
107
102
{ACAD_XDICTIONARY
360
85B2
102
}
102
{ACAD_REACTORS
330
106
102
}
330
106
100
AcDbVisualStyle
  2

 70
     0
 71
     2
 72
     1
 73
     1
 90
        2
 40
-0.6
 41
30.0
 62
     5
 63
     7
 74
     0
 91
        0
 64
     7
 65
   257
 75
     1
175
     1
 42
1.0
 92
        8
 66
     7
 43
1.0
 76
     1
 77
     6
 78
     2
 67
     7
 79
     5
170
     0
171
     0
290
     0
174
     0
 93
       13
 44
0.0
173
     0
291
     1
 45
0.0
1001
ACAD
1000
AcDbSavedByObjectVersion
1070
     0
  0
VISUALSTYLE
  5
108
102
{ACAD_XDICTIONARY
360
85B4
102
}
102
{ACAD_REACTORS
330
106
102
}
330
106
100
AcDbVisualStyle
  2

 70
     1
 71
     2
 72
     1
 73
     1
 90
        2
 40
-0.6
 41
30.0
 62
     5
 63
     7
 74
     1
 91
        0
 64
     7
 65
   257
 75
     1
175
     1
 42
1.0
 92
        0
 66
   257
 43
1.0
 76
     1
 77
     6
 78
     2
 67
     7
 79
     5
170
     0
171
     0
290
     0
174
     0
 93
       13
 44
0.0
173
     0
291
     1
 45
0.0
1001
ACAD
1000
AcDbSavedByObjectVersion
1070
     0
  0
VISUALSTYLE
  5
109
102
{ACAD_XDICTIONARY
360
85B6
102
}
102
{ACAD_REACTORS
330
106
102
}
330
106
100
AcDbVisualStyle
  2

 70
     2
 71
     2
 72
     2
 73
     1
 90
        2
 40
-0.6
 41
30.0
 62
     5
 63
     7
 74
     0
 91
        0
 64
     7
 65
   257
 75
     1
175
     1
 42
1.0
 92
        0
 66
     7
 43
1.0
 76
     1
 77
     6
 78
     2
 67
     7
 79
     5
170
     0
171
     0
290
     0
174
     0
 93
       13
 44
0.0
173
     0
291
     1
 45
0.0
1001
ACAD
1000
AcDbSavedByObjectVersion
1070
     0
  0
VISUALSTYLE
  5
10A
102
{ACAD_XDICTIONARY
360
85B8
102
}
102
{ACAD_REACTORS
330
106
102
}
330
106
100
AcDbVisualStyle
  2

 70
     3
 71
     2
 72
     2
 73
     1
 90
        2
 40
-0.6
 41
30.0
 62
     5
 63
     7
 74
     1
 91
        0
 64
     7
 65
   257
 75
     1
175
     1
 42
1.0
 92
        0
 66
   257
 43
1.0
 76
     1
 77
     6
 78
     2
 67
     7
 79
     5
170
     0
171
     0
290
     0
174
     0
 93
       13
 44
0.0
173
     0
291
     1
 45
0.0
1001
ACAD
1000
AcDbSavedByObjectVersion
1070
     0
  0
VISUALSTYLE
  5
10D
102
{ACAD_XDICTIONARY
360
85BE
102
}
102
{ACAD_REACTORS
330
106
102
}
330
106
100
AcDbVisualStyle
  2

 70
     6
 71
     1
 72
     2
 73
     2
 90
        0
 40
-0.6
 41
-30.0
 62
     5
 63
     7
 74
     2
 91
        2
 64
     7
 65
   257
 75
     2
175
     1
 42
40.0
 92
        0
 66
   257
 43
1.0
 76
     1
 77
     6
 78
     2
 67
     7
 79
     3
170
     0
171
     0
290
     0
174
     0
 93
        1
 44
0.0
173
     0
291
     0
 45
0.0
1001
ACAD
1000
AcDbSavedByObjectVersion
1070
     0
  0
VISUALSTYLE
  5
117
102
{ACAD_XDICTIONARY
360
85D2
102
}
102
{ACAD_REACTORS
330
106
102
}
330
106
100
AcDbVisualStyle
  2

 70
    20
 71
     2
 72
     2
 73
     0
 90
        0
 40
-0.6
 41
-30.0
 62
     5
 63
     7
 74
     1
 91
        4
 64
     7
 65
   257
 75
     1
175
     1
 42
1.0
 92
       10
 66
     7
 43
1.0
 76
     1
 77
     6
 78
     2
 67
     7
 79
     5
170
     0
171
     0
290
     0
174
     0
 93
        1
 44
0.0
173
     0
291
     1
 45
0.0
1001
ACAD
1000
AcDbSavedByObjectVersion
1070
     0
  0
VISUALSTYLE
  5
114
102
{ACAD_XDICTIONARY
360
85CC
102
}
102
{ACAD_REACTORS
330
106
102
}
330
106
100
AcDbVisualStyle
  2

 70
    14
 71
     2
 72
     2
 73
     0
 90
        0
 40
-0.6
 41
-30.0
 62
     5
 63
     7
 74
     1
 91
        4
 64
     7
 65
   257
 75
     7
175
     7
 42
1.0
 92
        8
 66
     7
 43
1.0
 76
     1
 77
     6
 78
     2
 67
     7
 79
     5
170
     0
171
     0
290
     0
174
     0
 93
        1
 44
0.0
173
     0
291
     1
 45
0.0
1001
ACAD
1000
AcDbSavedByObjectVersion
1070
     0
  0
VISUALSTYLE
  5
118
102
{ACAD_XDICTIONARY
360
85D4
102
}
102
{ACAD_REACTORS
330
106
102
}
330
106
100
AcDbVisualStyle
  2

 70
    21
 71
     2
 72
     2
 73
     0
 90
        0
 40
-0.6
 41
-30.0
 62
     5
 63
     7
 74
     1
 91
        4
 64
     7
 65
   257
 75
     1
175
     1
 42
1.0
 92
        9
 66
     7
 43
1.0
 76
     1
 77
     6
 78
     2
 67
     7
 79
     5
170
     0
171
     0
290
     0
174
     0
 93
        1
 44
0.0
173
     0
291
     1
 45
0.0
1001
ACAD
1000
AcDbSavedByObjectVersion
1070
     0
  0
VISUALSTYLE
  5
10F
102
{ACAD_XDICTIONARY
360
85C2
102
}
102
{ACAD_REACTORS
330
106
102
}
330
106
100
AcDbVisualStyle
  2

 70
     8
 71
     2
 72
     2
 73
     0
 90
        2
 40
-0.6
 41
30.0
 62
     5
 63
     7
 74
     0
 91
        0
 64
     7
 65
   257
 75
     1
175
     1
 42
1.0
 92
        8
 66
   257
 43
1.0
 76
     1
 77
     6
 78
     2
 67
     7
 79
     3
170
     0
171
     0
290
     0
174
     0
 93
       13
 44
0.0
173
     0
291
     0
 45
0.0
1001
ACAD
1000
AcDbSavedByObjectVersion
1070
     0
  0
VISUALSTYLE
  5
11E
102
{ACAD_XDICTIONARY
360
85E0
102
}
102
{ACAD_REACTORS
330
106
102
}
330
106
100
AcDbVisualStyle
  2

 70
    27
 71
     2
 72
     2
 73
     1
 90
        2
 40
-0.6
 41
30.0
 62
     5
 63
     7
 74
     0
 91
        4
 64
     7
 65
   257
 75
     1
175
     1
 42
1.0
 92
        8
 66
   257
 43
1.0
 76
     1
 77
     6
 78
     2
 67
     8
 79
     3
170
     0
171
     0
290
     0
174
     0
 93
        5
 44
0.0
173
     0
291
     0
 45
0.0
1001
ACAD
1000
AcDbSavedByObjectVersion
1070
     0
  0
VISUALSTYLE
  5
11D
102
{ACAD_XDICTIONARY
360
85DE
102
}
102
{ACAD_REACTORS
330
106
102
}
330
106
100
AcDbVisualStyle
  2

 70
    26
 71
     2
 72
     2
 73
     1
 90
        2
 40
-0.6
 41
30.0
 62
     5
 63
     7
 74
     1
 91
       10
 64
     7
 65
   257
 75
     2
175
     1
 42
1.0
 92
        8
 66
   257
 43
1.0
 76
     1
 77
     6
 78
     2
 67
     7
 79
     3
170
     0
171
     0
290
     0
174
     0
 93
        5
 44
0.0
173
     0
291
     0
 45
0.0
1001
ACAD
1000
AcDbSavedByObjectVersion
1070
     0
  0
VISUALSTYLE
  5
11A
102
{ACAD_XDICTIONARY
360
85D8
102
}
102
{ACAD_REACTORS
330
106
102
}
330
106
100
AcDbVisualStyle
  2

 70
    23
 71
     2
 72
     2
 73
     3
 90
        0
 40
-0.6
 41
-30.0
 62
     5
 63
     7
 74
     2
 91
        2
 64
     7
 65
     7
 75
     1
175
     1
 42
40.0
 92
        8
 66
     7
 43
1.0
 76
     1
 77
     6
 78
     2
 67
     7
 79
     3
170
     0
171
     0
290
     0
174
     0
 93
        1
 44
0.0
173
     0
291
     0
 45
0.0
1001
ACAD
1000
AcDbSavedByObjectVersion
1070
     0
  0
VISUALSTYLE
  5
11B
102
{ACAD_XDICTIONARY
360
85DA
102
}
102
{ACAD_REACTORS
330
106
102
}
330
106
100
AcDbVisualStyle
  2

 70
    24
 71
     1
 72
     2
 73
     2
 90
        0
 40
-0.6
 41
-30.0
 62
     5
 63
     7
 74
     2
 91
        2
 64
     7
 65
     7
 75
     1
175
     1
 42
40.0
 92
       11
 66
     7
 43
1.0
 76
     1
 77
     6
 78
     2
 67
     7
 79
     6
170
     0
171
     0
290
     0
174
     0
 93
        1
 44
0.0
173
     0
291
     0
 45
0.0
1001
ACAD
1000
AcDbSavedByObjectVersion
1070
     0
  0
VISUALSTYLE
  5
113
102
{ACAD_XDICTIONARY
360
85CA
102
}
102
{ACAD_REACTORS
330
106
102
}
330
106
100
AcDbVisualStyle
  2

 70
    13
 71
     2
 72
     2
 73
     0
 90
        0
 40
-0.6
 41
-30.0
 62
     5
 63
     7
 74
     1
 91
        4
 64
     7
 65
   257
 75
     1
175
     1
 42
1.0
 92
       12
 66
     7
 43
1.0
 76
     1
 77
     6
 78
     2
 67
     7
 79
     5
170
     0
171
     0
290
     0
174
     0
 93
        1
 44
0.0
173
     0
291
     1
 45
0.0
1001
ACAD
1000
AcDbSavedByObjectVersion
1070
     0
  0
VISUALSTYLE
  5
10C
102
{ACAD_XDICTIONARY
360
85BC
102
}
102
{ACAD_REACTORS
330
106
102
}
330
106
100
AcDbVisualStyle
  2

 70
     5
 71
     0
 72
     2
 73
     0
 90
        0
 40
-0.6
 41
-30.0
 62
     5
 63
     7
 74
     1
 91
        4
 64
     7
 65
   257
 75
     1
175
     1
 42
1.0
 92
        0
 66
   257
 43
1.0
 76
     1
 77
     6
 78
     2
 67
     7
 79
     3
170
     0
171
     0
290
     0
174
     0
 93
        1
 44
0.0
173
     0
291
     0
 45
0.0
1001
ACAD
1000
AcDbSavedByObjectVersion
1070
     0
  0
VISUALSTYLE
  5
11C
102
{ACAD_XDICTIONARY
360
85DC
102
}
102
{ACAD_REACTORS
330
106
102
}
330
106
100
AcDbVisualStyle
  2

 70
    25
 71
     2
 72
     2
 73
     1
 90
        1
 40
0.5
 41
-30.0
 62
     5
 63
     7
 74
     1
 91
        0
 64
     7
 65
   257
 75
     1
175
     1
 42
1.0
 92
        8
 66
     7
 43
1.0
 76
     1
 77
     6
 78
     2
 67
     7
 79
     3
170
     0
171
     0
290
     0
174
     0
 93
       13
 44
0.0
173
     0
291
     0
 45
0.0
1001
ACAD
1000
AcDbSavedByObjectVersion
1070
     0
  0
DICTIONARYVAR
  5
85A4
102
{ACAD_REACTORS
330
859F
102
}
330
859F
100
DictionaryVariables
280
     0
  1
1:1
  0
DICTIONARYVAR
  5
85A1
102
{ACAD_REACTORS
330
859F
102
}
330
859F
100
DictionaryVariables
280
     0
  1
STANDARD
  0
DICTIONARYVAR
  5
85A0
102
{ACAD_REACTORS
330
859F
102
}
330
859F
100
DictionaryVariables
280
     0
  1
STANDARD
  0
DICTIONARYVAR
  5
85A2
102
{ACAD_REACTORS
330
859F
102
}
330
859F
100
DictionaryVariables
280
     0
  1
Metric50
  0
DICTIONARYVAR
  5
85A3
102
{ACAD_REACTORS
330
859F
102
}
330
859F
100
DictionaryVariables
280
     0
  1
Metric50
  0
DICTIONARYVAR
  5
85A7
102
{ACAD_REACTORS
330
859F
102
}
330
859F
100
DictionaryVariables
280
     0
  1
1
  0
DICTIONARYVAR
  5
85A6
102
{ACAD_REACTORS
330
859F
102
}
330
859F
100
DictionaryVariables
280
     0
  1
0
  0
DICTIONARYVAR
  5
85A5
102
{ACAD_REACTORS
330
859F
102
}
330
859F
100
DictionaryVariables
280
     0
  1
127
  0
DICTIONARYVAR
  5
85A8
102
{ACAD_REACTORS
330
859F
102
}
330
859F
100
DictionaryVariables
280
     0
  1
2
  0
DICTIONARY
  5
85B0
330
21
100
AcDbDictionary
280
     1
281
     1
  3
ACAD_XREC_ROUNDTRIP
360
85B1
  0
DICTIONARY
  5
85AE
330
20
100
AcDbDictionary
280
     1
281
     1
  3
ACAD_XREC_ROUNDTRIP
360
85AF
  0
DICTIONARY
  5
857F
330
143
100
AcDbDictionary
280
     1
281
     1
  3
ACAD_XREC_ROUNDTRIP
360
8580
  0
DICTIONARY
  5
857D
330
142
100
AcDbDictionary
280
     1
281
     1
  3
ACAD_XREC_ROUNDTRIP
360
857E
  0
DICTIONARY
  5
8581
330
144
100
AcDbDictionary
280
     1
281
     1
  3
ACAD_XREC_ROUNDTRIP
360
8582
  0
DICTIONARY
  5
85E3
330
159
100
AcDbDictionary
280
     1
281
     1
  3
ACAD_XREC_ROUNDTRIP
360
85E4
  0
DICTIONARY
  5
85E5
330
12F4
100
AcDbDictionary
280
     1
281
     1
  3
ACAD_XREC_ROUNDTRIP
360
85E6
  0
DICTIONARY
  5
85E7
330
18F4
100
AcDbDictionary
280
     1
281
     1
  3
ACAD_XREC_ROUNDTRIP
360
85E8
  0
DICTIONARY
  5
85E9
330
1915
100
AcDbDictionary
280
     1
281
     1
  3
ACAD_XREC_ROUNDTRIP
360
85EA
  0
DICTIONARY
  5
CFA
330
146
100
AcDbDictionary
280
     1
281
     1
  3
ACAD_ROUNDTRIP_2008_TABLESTYLE_CELLSTYLEMAP
360
85A9
  3
ACAD_XREC_ROUNDTRIP
360
85E2
  0
DICTIONARY
  5
85BA
330
10B
100
AcDbDictionary
280
     1
281
     1
  3
ACAD_XREC_ROUNDTRIP
360
85BB
  0
DICTIONARY
  5
85C0
330
10E
100
AcDbDictionary
280
     1
281
     1
  3
ACAD_XREC_ROUNDTRIP
360
85C1
  0
DICTIONARY
  5
85C8
330
112
100
AcDbDictionary
280
     1
281
     1
  3
ACAD_XREC_ROUNDTRIP
360
85C9
  0
DICTIONARY
  5
85D0
330
116
100
AcDbDictionary
280
     1
281
     1
  3
ACAD_XREC_ROUNDTRIP
360
85D1
  0
DICTIONARY
  5
85C4
330
110
100
AcDbDictionary
280
     1
281
     1
  3
ACAD_XREC_ROUNDTRIP
360
85C5
  0
DICTIONARY
  5
85C6
330
111
100
AcDbDictionary
280
     1
281
     1
  3
ACAD_XREC_ROUNDTRIP
360
85C7
  0
DICTIONARY
  5
85D6
330
119
100
AcDbDictionary
280
     1
281
     1
  3
ACAD_XREC_ROUNDTRIP
360
85D7
  0
DICTIONARY
  5
85CE
330
115
100
AcDbDictionary
280
     1
281
     1
  3
ACAD_XREC_ROUNDTRIP
360
85CF
  0
DICTIONARY
  5
85B2
330
107
100
AcDbDictionary
280
     1
281
     1
  3
ACAD_XREC_ROUNDTRIP
360
85B3
  0
DICTIONARY
  5
85B4
330
108
100
AcDbDictionary
280
     1
281
     1
  3
ACAD_XREC_ROUNDTRIP
360
85B5
  0
DICTIONARY
  5
85B6
330
109
100
AcDbDictionary
280
     1
281
     1
  3
ACAD_XREC_ROUNDTRIP
360
85B7
  0
DICTIONARY
  5
85B8
330
10A
100
AcDbDictionary
280
     1
281
     1
  3
ACAD_XREC_ROUNDTRIP
360
85B9
  0
DICTIONARY
  5
85BE
330
10D
100
AcDbDictionary
280
     1
281
     1
  3
ACAD_XREC_ROUNDTRIP
360
85BF
  0
DICTIONARY
  5
85D2
330
117
100
AcDbDictionary
280
     1
281
     1
  3
ACAD_XREC_ROUNDTRIP
360
85D3
  0
DICTIONARY
  5
85CC
330
114
100
AcDbDictionary
280
     1
281
     1
  3
ACAD_XREC_ROUNDTRIP
360
85CD
  0
DICTIONARY
  5
85D4
330
118
100
AcDbDictionary
280
     1
281
     1
  3
ACAD_XREC_ROUNDTRIP
360
85D5
  0
DICTIONARY
  5
85C2
330
10F
100
AcDbDictionary
280
     1
281
     1
  3
ACAD_XREC_ROUNDTRIP
360
85C3
  0
DICTIONARY
  5
85E0
330
11E
100
AcDbDictionary
280
     1
281
     1
  3
ACAD_XREC_ROUNDTRIP
360
85E1
  0
DICTIONARY
  5
85DE
330
11D
100
AcDbDictionary
280
     1
281
     1
  3
ACAD_XREC_ROUNDTRIP
360
85DF
  0
DICTIONARY
  5
85D8
330
11A
100
AcDbDictionary
280
     1
281
     1
  3
ACAD_XREC_ROUNDTRIP
360
85D9
  0
DICTIONARY
  5
85DA
330
11B
100
AcDbDictionary
280
     1
281
     1
  3
ACAD_XREC_ROUNDTRIP
360
85DB
  0
DICTIONARY
  5
85CA
330
113
100
AcDbDictionary
280
     1
281
     1
  3
ACAD_XREC_ROUNDTRIP
360
85CB
  0
DICTIONARY
  5
85BC
330
10C
100
AcDbDictionary
280
     1
281
     1
  3
ACAD_XREC_ROUNDTRIP
360
85BD
  0
DICTIONARY
  5
85DC
330
11C
100
AcDbDictionary
280
     1
281
     1
  3
ACAD_XREC_ROUNDTRIP
360
85DD
  0
XRECORD
  5
85B1
102
{ACAD_REACTORS
330
85B0
102
}
330
85B0
100
AcDbXrecord
280
     1
102
SHADEPLOT
 70
     0
102
SHADEPLOTRESLEVEL
 70
     2
102
SHADEPLOTCUSTOMDPI
 70
   300
  0
XRECORD
  5
85AF
102
{ACAD_REACTORS
330
85AE
102
}
330
85AE
100
AcDbXrecord
280
     1
102
SHADEPLOT
 70
     0
102
SHADEPLOTRESLEVEL
 70
     2
102
SHADEPLOTCUSTOMDPI
 70
   300
  0
XRECORD
  5
8580
102
{ACAD_REACTORS
330
857F
102
}
330
857F
100
AcDbXrecord
280
     1
102
MATERIAL
148
0.0
149
0.0
149
0.0
 93
        0
 94
      127
282
     0
 72
     1
 77
     1
171
     1
175
     1
179
     1
273
     0
  0
XRECORD
  5
857E
102
{ACAD_REACTORS
330
857D
102
}
330
857D
100
AcDbXrecord
280
     1
102
MATERIAL
148
0.0
149
0.0
149
0.0
 93
        0
 94
      127
282
     0
 72
     1
 77
     1
171
     1
175
     1
179
     1
273
     0
  0
XRECORD
  5
8582
102
{ACAD_REACTORS
330
8581
102
}
330
8581
100
AcDbXrecord
280
     1
102
MATERIAL
148
0.0
149
0.0
149
0.0
 93
        0
 94
      127
282
     0
 72
     1
 77
     1
171
     1
175
     1
179
     1
273
     0
  0
XRECORD
  5
85E4
102
{ACAD_REACTORS
330
85E3
102
}
330
85E3
100
AcDbXrecord
280
     1
102
ACAD_ROUNDTRIP_2012_MLEADER_STYLE
298
     1
  0
XRECORD
  5
85E6
102
{ACAD_REACTORS
330
85E5
102
}
330
85E5
100
AcDbXrecord
280
     1
102
SHADEPLOT
 70
     0
102
SHADEPLOTRESLEVEL
 70
     2
102
SHADEPLOTCUSTOMDPI
 70
   300
  0
XRECORD
  5
85E8
102
{ACAD_REACTORS
330
85E7
102
}
330
85E7
100
AcDbXrecord
280
     1
102
SHADEPLOT
 70
     0
102
SHADEPLOTRESLEVEL
 70
     2
102
SHADEPLOTCUSTOMDPI
 70
   300
  0
XRECORD
  5
85EA
102
{ACAD_REACTORS
330
85E9
102
}
330
85E9
100
AcDbXrecord
280
     1
102
SHADEPLOT
 70
     0
102
SHADEPLOTRESLEVEL
 70
     2
102
SHADEPLOTCUSTOMDPI
 70
   300
  0
CELLSTYLEMAP
  5
85A9
102
{ACAD_REACTORS
330
CFA
102
}
330
CFA
100
AcDbCellStyleMap
 90
        3
300
CELLSTYLE
  1
TABLEFORMAT_BEGIN
 90
        5
170
     1
 91
        0
 92
    32768
 62
   257
 93
        1
300
CONTENTFORMAT
  1
CONTENTFORMAT_BEGIN
 90
        0
 91
        0
 92
        4
 93
        0
300

 40
0.0
140
1.0
 94
        5
 62
     0
340
17
144
6.0
309
CONTENTFORMAT_END
171
     1
301
MARGIN
  1
CELLMARGIN_BEGIN
 40
1.5
 40
1.5
 40
1.5
 40
1.5
 40
0.18
 40
0.18
309
CELLMARGIN_END
 94
        6
 95
        1
302
GRIDFORMAT
  1
GRIDFORMAT_BEGIN
 90
        0
 91
        1
 62
     0
 92
       -2
340
11
 93
        0
 40
0.045
309
GRIDFORMAT_END
 95
        2
302
GRIDFORMAT
  1
GRIDFORMAT_BEGIN
 90
        0
 91
        1
 62
     0
 92
       -2
340
11
 93
        0
 40
0.045
309
GRIDFORMAT_END
 95
        4
302
GRIDFORMAT
  1
GRIDFORMAT_BEGIN
 90
        0
 91
        1
 62
     0
 92
       -2
340
11
 93
        0
 40
0.045
309
GRIDFORMAT_END
 95
        8
302
GRIDFORMAT
  1
GRIDFORMAT_BEGIN
 90
        0
 91
        1
 62
     0
 92
       -2
340
11
 93
        0
 40
0.045
309
GRIDFORMAT_END
 95
       16
302
GRIDFORMAT
  1
GRIDFORMAT_BEGIN
 90
        0
 91
        1
 62
     0
 92
       -2
340
11
 93
        0
 40
0.045
309
GRIDFORMAT_END
 95
       32
302
GRIDFORMAT
  1
GRIDFORMAT_BEGIN
 90
        0
 91
        1
 62
     0
 92
       -2
340
11
 93
        0
 40
0.045
309
GRIDFORMAT_END
309
TABLEFORMAT_END
  1
CELLSTYLE_BEGIN
 90
        1
 91
        1
300
_TITLE
309
CELLSTYLE_END
300
CELLSTYLE
  1
TABLEFORMAT_BEGIN
 90
        5
170
     1
 91
        0
 92
        0
 62
   257
 93
        1
300
CONTENTFORMAT
  1
CONTENTFORMAT_BEGIN
 90
        0
 91
        0
 92
        4
 93
        0
300

 40
0.0
140
1.0
 94
        5
 62
     0
340
17
144
4.5
309
CONTENTFORMAT_END
171
     1
301
MARGIN
  1
CELLMARGIN_BEGIN
 40
1.5
 40
1.5
 40
1.5
 40
1.5
 40
0.18
 40
0.18
309
CELLMARGIN_END
 94
        6
 95
        1
302
GRIDFORMAT
  1
GRIDFORMAT_BEGIN
 90
        0
 91
        1
 62
     0
 92
       -2
340
11
 93
        0
 40
0.045
309
GRIDFORMAT_END
 95
        2
302
GRIDFORMAT
  1
GRIDFORMAT_BEGIN
 90
        0
 91
        1
 62
     0
 92
       -2
340
11
 93
        0
 40
0.045
309
GRIDFORMAT_END
 95
        4
302
GRIDFORMAT
  1
GRIDFORMAT_BEGIN
 90
        0
 91
        1
 62
     0
 92
       -2
340
11
 93
        0
 40
0.045
309
GRIDFORMAT_END
 95
        8
302
GRIDFORMAT
  1
GRIDFORMAT_BEGIN
 90
        0
 91
        1
 62
     0
 92
       -2
340
11
 93
        0
 40
0.045
309
GRIDFORMAT_END
 95
       16
302
GRIDFORMAT
  1
GRIDFORMAT_BEGIN
 90
        0
 91
        1
 62
     0
 92
       -2
340
11
 93
        0
 40
0.045
309
GRIDFORMAT_END
 95
       32
302
GRIDFORMAT
  1
GRIDFORMAT_BEGIN
 90
        0
 91
        1
 62
     0
 92
       -2
340
11
 93
        0
 40
0.045
309
GRIDFORMAT_END
309
TABLEFORMAT_END
  1
CELLSTYLE_BEGIN
 90
        2
 91
        1
300
_HEADER
309
CELLSTYLE_END
300
CELLSTYLE
  1
TABLEFORMAT_BEGIN
 90
        5
170
     1
 91
        0
 92
        0
 62
   257
 93
        1
300
CONTENTFORMAT
  1
CONTENTFORMAT_BEGIN
 90
        0
 91
        0
 92
        4
 93
        0
300

 40
0.0
140
1.0
 94
        2
 62
     0
340
17
144
4.5
309
CONTENTFORMAT_END
171
     1
301
MARGIN
  1
CELLMARGIN_BEGIN
 40
1.5
 40
1.5
 40
1.5
 40
1.5
 40
0.18
 40
0.18
309
CELLMARGIN_END
 94
        6
 95
        1
302
GRIDFORMAT
  1
GRIDFORMAT_BEGIN
 90
        0
 91
        1
 62
     0
 92
       -2
340
11
 93
        0
 40
0.045
309
GRIDFORMAT_END
 95
        2
302
GRIDFORMAT
  1
GRIDFORMAT_BEGIN
 90
        0
 91
        1
 62
     0
 92
       -2
340
11
 93
        0
 40
0.045
309
GRIDFORMAT_END
 95
        4
302
GRIDFORMAT
  1
GRIDFORMAT_BEGIN
 90
        0
 91
        1
 62
     0
 92
       -2
340
11
 93
        0
 40
0.045
309
GRIDFORMAT_END
 95
        8
302
GRIDFORMAT
  1
GRIDFORMAT_BEGIN
 90
        0
 91
        1
 62
     0
 92
       -2
340
11
 93
        0
 40
0.045
309
GRIDFORMAT_END
 95
       16
302
GRIDFORMAT
  1
GRIDFORMAT_BEGIN
 90
        0
 91
        1
 62
     0
 92
       -2
340
11
 93
        0
 40
0.045
309
GRIDFORMAT_END
 95
       32
302
GRIDFORMAT
  1
GRIDFORMAT_BEGIN
 90
        0
 91
        1
 62
     0
 92
       -2
340
11
 93
        0
 40
0.045
309
GRIDFORMAT_END
309
TABLEFORMAT_END
  1
CELLSTYLE_BEGIN
 90
        3
 91
        2
300
_DATA
309
CELLSTYLE_END
  0
XRECORD
  5
85E2
102
{ACAD_REACTORS
330
CFA
102
}
330
CFA
100
AcDbXrecord
280
     1
102
ACAD_ROUNDTRIP_PRE2007_TABLESTYLE
 90
        4
 91
        0
  1

 92
        4
 93
        0
  2

 94
        4
 95
        0
  3

  0
XRECORD
  5
85BB
102
{ACAD_REACTORS
330
85BA
102
}
330
85BA
100
AcDbXrecord
280
     1
102
RTVSPost2010Prop28
280
     1
102
RTVSPost2010PropOp28
 70
     1
102
RTVSPost2010Prop29
280
     1
102
RTVSPost2010PropOp29
 70
     1
102
RTVSPost2010Prop30
280
     0
102
RTVSPost2010PropOp30
 70
     1
102
RTVSPost2010Prop31
280
     0
102
RTVSPost2010PropOp31
 70
     1
102
RTVSPost2010Prop32
280
     0
102
RTVSPost2010PropOp32
 70
     1
102
RTVSPost2010Prop33
280
     0
102
RTVSPost2010PropOp33
 70
     1
102
RTVSPost2010Prop34
280
     0
102
RTVSPost2010PropOp34
 70
     1
102
RTVSPost2010Prop35
280
     0
102
RTVSPost2010PropOp35
 70
     1
102
RTVSPost2010Prop36
280
     0
102
RTVSPost2010PropOp36
 70
     1
102
RTVSPost2010Prop37
 90
       50
102
RTVSPost2010PropOp37
 70
     1
102
RTVSPost2010Prop38
140
0.0
102
RTVSPost2010PropOp38
 70
     1
102
RTVSPost2010Prop39
140
1.0
102
RTVSPost2010PropOp39
 70
     1
102
RTVSPost2010Prop40
 90
        0
102
RTVSPost2010PropOp40
 70
     1
102
RTVSPost2010Prop41ColorIndex
 90
       18
102
RTVSPost2010Prop41ColorRGB
 90
        0
102
RTVSPost2010PropOp41
 70
     1
102
RTVSPost2010Prop42
 90
       50
102
RTVSPost2010PropOp42
 70
     1
102
RTVSPost2010Prop43
 90
        3
102
RTVSPost2010PropOp43
 70
     1
102
RTVSPost2010Prop44ColorIndex
 90
        5
102
RTVSPost2010Prop44ColorRGB
 90
      255
102
RTVSPost2010PropOp44
 70
     1
102
RTVSPost2010Prop45
280
     0
102
RTVSPost2010PropOp45
 70
     1
102
RTVSPost2010Prop46
 90
       50
102
RTVSPost2010PropOp46
 70
     1
102
RTVSPost2010Prop47
 90
       50
102
RTVSPost2010PropOp47
 70
     1
102
RTVSPost2010Prop48
 90
       50
102
RTVSPost2010PropOp48
 70
     1
102
RTVSPost2010Prop49
280
     0
102
RTVSPost2010PropOp49
 70
     1
102
RTVSPost2010Prop50
 90
       50
102
RTVSPost2010PropOp50
 70
     1
102
RTVSPost2010Prop51ColorIndex
 90
      256
102
RTVSPost2010Prop51ColorRGB
 90
-16777216
102
RTVSPost2010PropOp51
 70
     0
102
RTVSPost2010Prop52
140
1.0
102
RTVSPost2010PropOp52
 70
     0
102
RTVSPost2010Prop53
 90
        2
102
RTVSPost2010PropOp53
 70
     1
102
RTVSPost2010Prop54
  1
strokes_ogs.tif
102
RTVSPost2010PropOp54
 70
     1
102
RTVSPost2010Prop55
280
     0
102
RTVSPost2010PropOp55
 70
     1
102
RTVSPost2010Prop56
140
1.0
102
RTVSPost2010PropOp56
 70
     1
102
RTVSPost2010Prop57
140
1.0
102
RTVSPost2010PropOp57
 70
     1
102
RTVSPropertyOp0
 70
     1
102
RTVSPropertyOp1
 70
     1
102
RTVSPropertyOp2
 70
     1
102
RTVSPropertyOp3
 70
     1
102
RTVSPropertyOp4
 70
     1
102
RTVSPropertyOp5
 70
     1
102
RTVSPropertyOp6
 70
     1
102
RTVSPropertyOp7
 70
     1
102
RTVSPropertyOp8
 70
     1
102
RTVSPropertyOp9
 70
     1
102
RTVSPropertyOp10
 70
     1
102
RTVSPropertyOp11
 70
     1
102
RTVSPropertyOp12
 70
     1
102
RTVSPropertyOp13
 70
     1
102
RTVSPropertyOp14
 70
     1
102
RTVSPropertyOp15
 70
     1
102
RTVSPropertyOp16
 70
     1
102
RTVSPropertyOp17
 70
     1
102
RTVSPropertyOp18
 70
     1
102
RTVSPropertyOp19
 70
     1
102
RTVSPropertyOp20
 70
     1
102
RTVSPropertyOp21
 70
     1
102
RTVSPropertyOp22
 70
     1
102
RTVSPropertyOp23
 70
     1
102
RTVSPropertyOp24
 70
     1
102
RTVSPropertyOp25
 70
     1
102
RTVSPropertyOp26
 70
     1
102
RTVSPropertyOp27
 70
     1
102
RTVSPropertyOp28
 70
     1
102
RTVSPropertyOp29
 70
     1
102
RTVSPropertyOp30
 70
     1
102
RTVSPropertyOp31
 70
     1
102
RTVSPropertyOp32
 70
     1
102
RTVSPropertyOp33
 70
     1
102
RTVSPropertyOp34
 70
     1
102
RTVSPropertyOp35
 70
     1
102
RTVSPropertyOp36
 70
     1
102
RTVSPropertyOp37
 70
     1
102
RTVSPropertyOp38
 70
     1
102
RTVSPropertyOp39
 70
     1
102
RTVSPropertyOp40
 70
     1
102
RTVSPropertyOp41
 70
     1
102
RTVSPropertyOp42
 70
     1
102
RTVSPropertyOp43
 70
     1
102
RTVSPropertyOp44
 70
     1
102
RTVSPropertyOp45
 70
     1
102
RTVSPropertyOp46
 70
     1
102
RTVSPropertyOp47
 70
     1
102
RTVSPropertyOp48
 70
     1
102
RTVSPropertyOp49
 70
     1
102
RTVSPropertyOp50
 70
     1
102
RTVSPropertyOp51
 70
     0
102
RTVSPropertyOp52
 70
     0
102
RTVSPropertyOp53
 70
     1
102
RTVSPropertyOp54
 70
     1
102
RTVSPropertyOp55
 70
     1
102
RTVSPropertyOp56
 70
     1
102
RTVSPropertyOp57
 70
     1
102
RTVSPropertyOp58
 70
     1
102
RTVSPropertyOp59
 70
     1
102
RTVSPropertyOp60
 70
     1
102
RTVSPropertyOp61
 70
     1
102
RTVSPropertyOp62
 70
     1
  0
XRECORD
  5
85C1
102
{ACAD_REACTORS
330
85C0
102
}
330
85C0
100
AcDbXrecord
280
     1
102
RTVSPost2010Prop28
280
     0
102
RTVSPost2010PropOp28
 70
     1
102
RTVSPost2010Prop29
280
     1
102
RTVSPost2010PropOp29
 70
     1
102
RTVSPost2010Prop30
280
     1
102
RTVSPost2010PropOp30
 70
     1
102
RTVSPost2010Prop31
280
     0
102
RTVSPost2010PropOp31
 70
     1
102
RTVSPost2010Prop32
280
     0
102
RTVSPost2010PropOp32
 70
     1
102
RTVSPost2010Prop33
280
     0
102
RTVSPost2010PropOp33
 70
     1
102
RTVSPost2010Prop34
280
     0
102
RTVSPost2010PropOp34
 70
     1
102
RTVSPost2010Prop35
280
     0
102
RTVSPost2010PropOp35
 70
     1
102
RTVSPost2010Prop36
280
     0
102
RTVSPost2010PropOp36
 70
     1
102
RTVSPost2010Prop37
 90
       50
102
RTVSPost2010PropOp37
 70
     1
102
RTVSPost2010Prop38
140
0.0
102
RTVSPost2010PropOp38
 70
     1
102
RTVSPost2010Prop39
140
1.0
102
RTVSPost2010PropOp39
 70
     1
102
RTVSPost2010Prop40
 90
        0
102
RTVSPost2010PropOp40
 70
     1
102
RTVSPost2010Prop41ColorIndex
 90
       18
102
RTVSPost2010Prop41ColorRGB
 90
        0
102
RTVSPost2010PropOp41
 70
     1
102
RTVSPost2010Prop42
 90
       50
102
RTVSPost2010PropOp42
 70
     1
102
RTVSPost2010Prop43
 90
        3
102
RTVSPost2010PropOp43
 70
     1
102
RTVSPost2010Prop44ColorIndex
 90
        5
102
RTVSPost2010Prop44ColorRGB
 90
      255
102
RTVSPost2010PropOp44
 70
     1
102
RTVSPost2010Prop45
280
     0
102
RTVSPost2010PropOp45
 70
     1
102
RTVSPost2010Prop46
 90
       50
102
RTVSPost2010PropOp46
 70
     1
102
RTVSPost2010Prop47
 90
       50
102
RTVSPost2010PropOp47
 70
     1
102
RTVSPost2010Prop48
 90
       50
102
RTVSPost2010PropOp48
 70
     1
102
RTVSPost2010Prop49
280
     0
102
RTVSPost2010PropOp49
 70
     1
102
RTVSPost2010Prop50
 90
       50
102
RTVSPost2010PropOp50
 70
     1
102
RTVSPost2010Prop51ColorIndex
 90
      256
102
RTVSPost2010Prop51ColorRGB
 90
-16777216
102
RTVSPost2010PropOp51
 70
     0
102
RTVSPost2010Prop52
140
1.0
102
RTVSPost2010PropOp52
 70
     0
102
RTVSPost2010Prop53
 90
        2
102
RTVSPost2010PropOp53
 70
     1
102
RTVSPost2010Prop54
  1
strokes_ogs.tif
102
RTVSPost2010PropOp54
 70
     1
102
RTVSPost2010Prop55
280
     0
102
RTVSPost2010PropOp55
 70
     1
102
RTVSPost2010Prop56
140
1.0
102
RTVSPost2010PropOp56
 70
     1
102
RTVSPost2010Prop57
140
1.0
102
RTVSPost2010PropOp57
 70
     1
102
RTVSPropertyOp0
 70
     1
102
RTVSPropertyOp1
 70
     1
102
RTVSPropertyOp2
 70
     1
102
RTVSPropertyOp3
 70
     1
102
RTVSPropertyOp4
 70
     1
102
RTVSPropertyOp5
 70
     1
102
RTVSPropertyOp6
 70
     1
102
RTVSPropertyOp7
 70
     1
102
RTVSPropertyOp8
 70
     1
102
RTVSPropertyOp9
 70
     1
102
RTVSPropertyOp10
 70
     1
102
RTVSPropertyOp11
 70
     1
102
RTVSPropertyOp12
 70
     1
102
RTVSPropertyOp13
 70
     1
102
RTVSPropertyOp14
 70
     1
102
RTVSPropertyOp15
 70
     1
102
RTVSPropertyOp16
 70
     1
102
RTVSPropertyOp17
 70
     1
102
RTVSPropertyOp18
 70
     1
102
RTVSPropertyOp19
 70
     1
102
RTVSPropertyOp20
 70
     1
102
RTVSPropertyOp21
 70
     1
102
RTVSPropertyOp22
 70
     1
102
RTVSPropertyOp23
 70
     1
102
RTVSPropertyOp24
 70
     1
102
RTVSPropertyOp25
 70
     1
102
RTVSPropertyOp26
 70
     1
102
RTVSPropertyOp27
 70
     1
102
RTVSPropertyOp28
 70
     1
102
RTVSPropertyOp29
 70
     1
102
RTVSPropertyOp30
 70
     1
102
RTVSPropertyOp31
 70
     1
102
RTVSPropertyOp32
 70
     1
102
RTVSPropertyOp33
 70
     1
102
RTVSPropertyOp34
 70
     1
102
RTVSPropertyOp35
 70
     1
102
RTVSPropertyOp36
 70
     1
102
RTVSPropertyOp37
 70
     1
102
RTVSPropertyOp38
 70
     1
102
RTVSPropertyOp39
 70
     1
102
RTVSPropertyOp40
 70
     1
102
RTVSPropertyOp41
 70
     1
102
RTVSPropertyOp42
 70
     1
102
RTVSPropertyOp43
 70
     1
102
RTVSPropertyOp44
 70
     1
102
RTVSPropertyOp45
 70
     1
102
RTVSPropertyOp46
 70
     1
102
RTVSPropertyOp47
 70
     1
102
RTVSPropertyOp48
 70
     1
102
RTVSPropertyOp49
 70
     1
102
RTVSPropertyOp50
 70
     1
102
RTVSPropertyOp51
 70
     0
102
RTVSPropertyOp52
 70
     0
102
RTVSPropertyOp53
 70
     1
102
RTVSPropertyOp54
 70
     1
102
RTVSPropertyOp55
 70
     1
102
RTVSPropertyOp56
 70
     1
102
RTVSPropertyOp57
 70
     1
102
RTVSPropertyOp58
 70
     1
102
RTVSPropertyOp59
 70
     1
102
RTVSPropertyOp60
 70
     1
102
RTVSPropertyOp61
 70
     1
102
RTVSPropertyOp62
 70
     1
  0
XRECORD
  5
85C9
102
{ACAD_REACTORS
330
85C8
102
}
330
85C8
100
AcDbXrecord
280
     1
102
RTVSPost2010Prop28
280
     0
102
RTVSPost2010PropOp28
 70
     1
102
RTVSPost2010Prop29
280
     1
102
RTVSPost2010PropOp29
 70
     1
102
RTVSPost2010Prop30
280
     1
102
RTVSPost2010PropOp30
 70
     1
102
RTVSPost2010Prop31
280
     0
102
RTVSPost2010PropOp31
 70
     1
102
RTVSPost2010Prop32
280
     0
102
RTVSPost2010PropOp32
 70
     1
102
RTVSPost2010Prop33
280
     0
102
RTVSPost2010PropOp33
 70
     1
102
RTVSPost2010Prop34
280
     0
102
RTVSPost2010PropOp34
 70
     1
102
RTVSPost2010Prop35
280
     0
102
RTVSPost2010PropOp35
 70
     1
102
RTVSPost2010Prop36
280
     0
102
RTVSPost2010PropOp36
 70
     1
102
RTVSPost2010Prop37
 90
       50
102
RTVSPost2010PropOp37
 70
     1
102
RTVSPost2010Prop38
140
0.0
102
RTVSPost2010PropOp38
 70
     1
102
RTVSPost2010Prop39
140
1.0
102
RTVSPost2010PropOp39
 70
     1
102
RTVSPost2010Prop40
 90
        0
102
RTVSPost2010PropOp40
 70
     1
102
RTVSPost2010Prop41ColorIndex
 90
       18
102
RTVSPost2010Prop41ColorRGB
 90
        0
102
RTVSPost2010PropOp41
 70
     1
102
RTVSPost2010Prop42
 90
       50
102
RTVSPost2010PropOp42
 70
     1
102
RTVSPost2010Prop43
 90
        3
102
RTVSPost2010PropOp43
 70
     1
102
RTVSPost2010Prop44ColorIndex
 90
        5
102
RTVSPost2010Prop44ColorRGB
 90
      255
102
RTVSPost2010PropOp44
 70
     1
102
RTVSPost2010Prop45
280
     0
102
RTVSPost2010PropOp45
 70
     1
102
RTVSPost2010Prop46
 90
       50
102
RTVSPost2010PropOp46
 70
     1
102
RTVSPost2010Prop47
 90
       50
102
RTVSPost2010PropOp47
 70
     1
102
RTVSPost2010Prop48
 90
       50
102
RTVSPost2010PropOp48
 70
     1
102
RTVSPost2010Prop49
280
     0
102
RTVSPost2010PropOp49
 70
     1
102
RTVSPost2010Prop50
 90
       50
102
RTVSPost2010PropOp50
 70
     1
102
RTVSPost2010Prop51ColorIndex
 90
      256
102
RTVSPost2010Prop51ColorRGB
 90
-16777216
102
RTVSPost2010PropOp51
 70
     0
102
RTVSPost2010Prop52
140
1.0
102
RTVSPost2010PropOp52
 70
     0
102
RTVSPost2010Prop53
 90
        2
102
RTVSPost2010PropOp53
 70
     1
102
RTVSPost2010Prop54
  1
strokes_ogs.tif
102
RTVSPost2010PropOp54
 70
     1
102
RTVSPost2010Prop55
280
     0
102
RTVSPost2010PropOp55
 70
     1
102
RTVSPost2010Prop56
140
1.0
102
RTVSPost2010PropOp56
 70
     1
102
RTVSPost2010Prop57
140
1.0
102
RTVSPost2010PropOp57
 70
     1
102
RTVSPropertyOp0
 70
     1
102
RTVSPropertyOp1
 70
     1
102
RTVSPropertyOp2
 70
     1
102
RTVSPropertyOp3
 70
     1
102
RTVSPropertyOp4
 70
     1
102
RTVSPropertyOp5
 70
     1
102
RTVSPropertyOp6
 70
     1
102
RTVSPropertyOp7
 70
     1
102
RTVSPropertyOp8
 70
     1
102
RTVSPropertyOp9
 70
     1
102
RTVSPropertyOp10
 70
     1
102
RTVSPropertyOp11
 70
     1
102
RTVSPropertyOp12
 70
     1
102
RTVSPropertyOp13
 70
     1
102
RTVSPropertyOp14
 70
     1
102
RTVSPropertyOp15
 70
     1
102
RTVSPropertyOp16
 70
     1
102
RTVSPropertyOp17
 70
     1
102
RTVSPropertyOp18
 70
     1
102
RTVSPropertyOp19
 70
     1
102
RTVSPropertyOp20
 70
     1
102
RTVSPropertyOp21
 70
     1
102
RTVSPropertyOp22
 70
     1
102
RTVSPropertyOp23
 70
     1
102
RTVSPropertyOp24
 70
     1
102
RTVSPropertyOp25
 70
     1
102
RTVSPropertyOp26
 70
     1
102
RTVSPropertyOp27
 70
     1
102
RTVSPropertyOp28
 70
     1
102
RTVSPropertyOp29
 70
     1
102
RTVSPropertyOp30
 70
     1
102
RTVSPropertyOp31
 70
     1
102
RTVSPropertyOp32
 70
     1
102
RTVSPropertyOp33
 70
     1
102
RTVSPropertyOp34
 70
     1
102
RTVSPropertyOp35
 70
     1
102
RTVSPropertyOp36
 70
     1
102
RTVSPropertyOp37
 70
     1
102
RTVSPropertyOp38
 70
     1
102
RTVSPropertyOp39
 70
     1
102
RTVSPropertyOp40
 70
     1
102
RTVSPropertyOp41
 70
     1
102
RTVSPropertyOp42
 70
     1
102
RTVSPropertyOp43
 70
     1
102
RTVSPropertyOp44
 70
     1
102
RTVSPropertyOp45
 70
     1
102
RTVSPropertyOp46
 70
     1
102
RTVSPropertyOp47
 70
     1
102
RTVSPropertyOp48
 70
     1
102
RTVSPropertyOp49
 70
     1
102
RTVSPropertyOp50
 70
     1
102
RTVSPropertyOp51
 70
     0
102
RTVSPropertyOp52
 70
     0
102
RTVSPropertyOp53
 70
     1
102
RTVSPropertyOp54
 70
     1
102
RTVSPropertyOp55
 70
     1
102
RTVSPropertyOp56
 70
     1
102
RTVSPropertyOp57
 70
     1
102
RTVSPropertyOp58
 70
     1
102
RTVSPropertyOp59
 70
     1
102
RTVSPropertyOp60
 70
     1
102
RTVSPropertyOp61
 70
     1
102
RTVSPropertyOp62
 70
     1
  0
XRECORD
  5
85D1
102
{ACAD_REACTORS
330
85D0
102
}
330
85D0
100
AcDbXrecord
280
     1
102
RTVSPost2010Prop28
280
     0
102
RTVSPost2010PropOp28
 70
     1
102
RTVSPost2010Prop29
280
     1
102
RTVSPost2010PropOp29
 70
     1
102
RTVSPost2010Prop30
280
     1
102
RTVSPost2010PropOp30
 70
     1
102
RTVSPost2010Prop31
280
     0
102
RTVSPost2010PropOp31
 70
     1
102
RTVSPost2010Prop32
280
     0
102
RTVSPost2010PropOp32
 70
     1
102
RTVSPost2010Prop33
280
     0
102
RTVSPost2010PropOp33
 70
     1
102
RTVSPost2010Prop34
280
     0
102
RTVSPost2010PropOp34
 70
     1
102
RTVSPost2010Prop35
280
     0
102
RTVSPost2010PropOp35
 70
     1
102
RTVSPost2010Prop36
280
     0
102
RTVSPost2010PropOp36
 70
     1
102
RTVSPost2010Prop37
 90
       50
102
RTVSPost2010PropOp37
 70
     1
102
RTVSPost2010Prop38
140
0.0
102
RTVSPost2010PropOp38
 70
     1
102
RTVSPost2010Prop39
140
1.0
102
RTVSPost2010PropOp39
 70
     1
102
RTVSPost2010Prop40
 90
        0
102
RTVSPost2010PropOp40
 70
     1
102
RTVSPost2010Prop41ColorIndex
 90
       18
102
RTVSPost2010Prop41ColorRGB
 90
        0
102
RTVSPost2010PropOp41
 70
     1
102
RTVSPost2010Prop42
 90
       50
102
RTVSPost2010PropOp42
 70
     1
102
RTVSPost2010Prop43
 90
        3
102
RTVSPost2010PropOp43
 70
     1
102
RTVSPost2010Prop44ColorIndex
 90
        5
102
RTVSPost2010Prop44ColorRGB
 90
      255
102
RTVSPost2010PropOp44
 70
     1
102
RTVSPost2010Prop45
280
     0
102
RTVSPost2010PropOp45
 70
     1
102
RTVSPost2010Prop46
 90
       50
102
RTVSPost2010PropOp46
 70
     1
102
RTVSPost2010Prop47
 90
       50
102
RTVSPost2010PropOp47
 70
     1
102
RTVSPost2010Prop48
 90
       50
102
RTVSPost2010PropOp48
 70
     1
102
RTVSPost2010Prop49
280
     0
102
RTVSPost2010PropOp49
 70
     1
102
RTVSPost2010Prop50
 90
       50
102
RTVSPost2010PropOp50
 70
     1
102
RTVSPost2010Prop51ColorIndex
 90
      256
102
RTVSPost2010Prop51ColorRGB
 90
-16777216
102
RTVSPost2010PropOp51
 70
     0
102
RTVSPost2010Prop52
140
1.0
102
RTVSPost2010PropOp52
 70
     0
102
RTVSPost2010Prop53
 90
        2
102
RTVSPost2010PropOp53
 70
     1
102
RTVSPost2010Prop54
  1
strokes_ogs.tif
102
RTVSPost2010PropOp54
 70
     1
102
RTVSPost2010Prop55
280
     0
102
RTVSPost2010PropOp55
 70
     1
102
RTVSPost2010Prop56
140
1.0
102
RTVSPost2010PropOp56
 70
     1
102
RTVSPost2010Prop57
140
1.0
102
RTVSPost2010PropOp57
 70
     1
102
RTVSPropertyOp0
 70
     1
102
RTVSPropertyOp1
 70
     1
102
RTVSPropertyOp2
 70
     1
102
RTVSPropertyOp3
 70
     1
102
RTVSPropertyOp4
 70
     1
102
RTVSPropertyOp5
 70
     1
102
RTVSPropertyOp6
 70
     1
102
RTVSPropertyOp7
 70
     1
102
RTVSPropertyOp8
 70
     1
102
RTVSPropertyOp9
 70
     1
102
RTVSPropertyOp10
 70
     1
102
RTVSPropertyOp11
 70
     1
102
RTVSPropertyOp12
 70
     1
102
RTVSPropertyOp13
 70
     1
102
RTVSPropertyOp14
 70
     1
102
RTVSPropertyOp15
 70
     1
102
RTVSPropertyOp16
 70
     1
102
RTVSPropertyOp17
 70
     1
102
RTVSPropertyOp18
 70
     1
102
RTVSPropertyOp19
 70
     1
102
RTVSPropertyOp20
 70
     1
102
RTVSPropertyOp21
 70
     1
102
RTVSPropertyOp22
 70
     1
102
RTVSPropertyOp23
 70
     1
102
RTVSPropertyOp24
 70
     1
102
RTVSPropertyOp25
 70
     1
102
RTVSPropertyOp26
 70
     1
102
RTVSPropertyOp27
 70
     1
102
RTVSPropertyOp28
 70
     1
102
RTVSPropertyOp29
 70
     1
102
RTVSPropertyOp30
 70
     1
102
RTVSPropertyOp31
 70
     1
102
RTVSPropertyOp32
 70
     1
102
RTVSPropertyOp33
 70
     1
102
RTVSPropertyOp34
 70
     1
102
RTVSPropertyOp35
 70
     1
102
RTVSPropertyOp36
 70
     1
102
RTVSPropertyOp37
 70
     1
102
RTVSPropertyOp38
 70
     1
102
RTVSPropertyOp39
 70
     1
102
RTVSPropertyOp40
 70
     1
102
RTVSPropertyOp41
 70
     1
102
RTVSPropertyOp42
 70
     1
102
RTVSPropertyOp43
 70
     1
102
RTVSPropertyOp44
 70
     1
102
RTVSPropertyOp45
 70
     1
102
RTVSPropertyOp46
 70
     1
102
RTVSPropertyOp47
 70
     1
102
RTVSPropertyOp48
 70
     1
102
RTVSPropertyOp49
 70
     1
102
RTVSPropertyOp50
 70
     1
102
RTVSPropertyOp51
 70
     0
102
RTVSPropertyOp52
 70
     0
102
RTVSPropertyOp53
 70
     1
102
RTVSPropertyOp54
 70
     1
102
RTVSPropertyOp55
 70
     1
102
RTVSPropertyOp56
 70
     1
102
RTVSPropertyOp57
 70
     1
102
RTVSPropertyOp58
 70
     1
102
RTVSPropertyOp59
 70
     1
102
RTVSPropertyOp60
 70
     1
102
RTVSPropertyOp61
 70
     1
102
RTVSPropertyOp62
 70
     1
  0
XRECORD
  5
85C5
102
{ACAD_REACTORS
330
85C4
102
}
330
85C4
100
AcDbXrecord
280
     1
102
RTVSPost2010Prop28
280
     0
102
RTVSPost2010PropOp28
 70
     1
102
RTVSPost2010Prop29
280
     1
102
RTVSPost2010PropOp29
 70
     1
102
RTVSPost2010Prop30
280
     1
102
RTVSPost2010PropOp30
 70
     1
102
RTVSPost2010Prop31
280
     0
102
RTVSPost2010PropOp31
 70
     1
102
RTVSPost2010Prop32
280
     0
102
RTVSPost2010PropOp32
 70
     1
102
RTVSPost2010Prop33
280
     0
102
RTVSPost2010PropOp33
 70
     1
102
RTVSPost2010Prop34
280
     0
102
RTVSPost2010PropOp34
 70
     1
102
RTVSPost2010Prop35
280
     0
102
RTVSPost2010PropOp35
 70
     1
102
RTVSPost2010Prop36
280
     0
102
RTVSPost2010PropOp36
 70
     1
102
RTVSPost2010Prop37
 90
       50
102
RTVSPost2010PropOp37
 70
     1
102
RTVSPost2010Prop38
140
0.0
102
RTVSPost2010PropOp38
 70
     1
102
RTVSPost2010Prop39
140
1.0
102
RTVSPost2010PropOp39
 70
     1
102
RTVSPost2010Prop40
 90
        0
102
RTVSPost2010PropOp40
 70
     1
102
RTVSPost2010Prop41ColorIndex
 90
       18
102
RTVSPost2010Prop41ColorRGB
 90
        0
102
RTVSPost2010PropOp41
 70
     1
102
RTVSPost2010Prop42
 90
       50
102
RTVSPost2010PropOp42
 70
     1
102
RTVSPost2010Prop43
 90
        3
102
RTVSPost2010PropOp43
 70
     1
102
RTVSPost2010Prop44ColorIndex
 90
        5
102
RTVSPost2010Prop44ColorRGB
 90
      255
102
RTVSPost2010PropOp44
 70
     1
102
RTVSPost2010Prop45
280
     0
102
RTVSPost2010PropOp45
 70
     1
102
RTVSPost2010Prop46
 90
       50
102
RTVSPost2010PropOp46
 70
     1
102
RTVSPost2010Prop47
 90
       50
102
RTVSPost2010PropOp47
 70
     1
102
RTVSPost2010Prop48
 90
       50
102
RTVSPost2010PropOp48
 70
     1
102
RTVSPost2010Prop49
280
     0
102
RTVSPost2010PropOp49
 70
     1
102
RTVSPost2010Prop50
 90
       50
102
RTVSPost2010PropOp50
 70
     1
102
RTVSPost2010Prop51ColorIndex
 90
      256
102
RTVSPost2010Prop51ColorRGB
 90
-16777216
102
RTVSPost2010PropOp51
 70
     0
102
RTVSPost2010Prop52
140
1.0
102
RTVSPost2010PropOp52
 70
     0
102
RTVSPost2010Prop53
 90
        2
102
RTVSPost2010PropOp53
 70
     1
102
RTVSPost2010Prop54
  1
strokes_ogs.tif
102
RTVSPost2010PropOp54
 70
     1
102
RTVSPost2010Prop55
280
     0
102
RTVSPost2010PropOp55
 70
     1
102
RTVSPost2010Prop56
140
1.0
102
RTVSPost2010PropOp56
 70
     1
102
RTVSPost2010Prop57
140
1.0
102
RTVSPost2010PropOp57
 70
     1
102
RTVSPropertyOp0
 70
     1
102
RTVSPropertyOp1
 70
     1
102
RTVSPropertyOp2
 70
     1
102
RTVSPropertyOp3
 70
     1
102
RTVSPropertyOp4
 70
     1
102
RTVSPropertyOp5
 70
     1
102
RTVSPropertyOp6
 70
     1
102
RTVSPropertyOp7
 70
     1
102
RTVSPropertyOp8
 70
     1
102
RTVSPropertyOp9
 70
     1
102
RTVSPropertyOp10
 70
     1
102
RTVSPropertyOp11
 70
     1
102
RTVSPropertyOp12
 70
     1
102
RTVSPropertyOp13
 70
     1
102
RTVSPropertyOp14
 70
     1
102
RTVSPropertyOp15
 70
     1
102
RTVSPropertyOp16
 70
     1
102
RTVSPropertyOp17
 70
     1
102
RTVSPropertyOp18
 70
     1
102
RTVSPropertyOp19
 70
     1
102
RTVSPropertyOp20
 70
     1
102
RTVSPropertyOp21
 70
     1
102
RTVSPropertyOp22
 70
     1
102
RTVSPropertyOp23
 70
     1
102
RTVSPropertyOp24
 70
     1
102
RTVSPropertyOp25
 70
     1
102
RTVSPropertyOp26
 70
     1
102
RTVSPropertyOp27
 70
     1
102
RTVSPropertyOp28
 70
     1
102
RTVSPropertyOp29
 70
     1
102
RTVSPropertyOp30
 70
     1
102
RTVSPropertyOp31
 70
     1
102
RTVSPropertyOp32
 70
     1
102
RTVSPropertyOp33
 70
     1
102
RTVSPropertyOp34
 70
     1
102
RTVSPropertyOp35
 70
     1
102
RTVSPropertyOp36
 70
     1
102
RTVSPropertyOp37
 70
     1
102
RTVSPropertyOp38
 70
     1
102
RTVSPropertyOp39
 70
     1
102
RTVSPropertyOp40
 70
     1
102
RTVSPropertyOp41
 70
     1
102
RTVSPropertyOp42
 70
     1
102
RTVSPropertyOp43
 70
     1
102
RTVSPropertyOp44
 70
     1
102
RTVSPropertyOp45
 70
     1
102
RTVSPropertyOp46
 70
     1
102
RTVSPropertyOp47
 70
     1
102
RTVSPropertyOp48
 70
     1
102
RTVSPropertyOp49
 70
     1
102
RTVSPropertyOp50
 70
     1
102
RTVSPropertyOp51
 70
     0
102
RTVSPropertyOp52
 70
     0
102
RTVSPropertyOp53
 70
     1
102
RTVSPropertyOp54
 70
     1
102
RTVSPropertyOp55
 70
     1
102
RTVSPropertyOp56
 70
     1
102
RTVSPropertyOp57
 70
     1
102
RTVSPropertyOp58
 70
     1
102
RTVSPropertyOp59
 70
     1
102
RTVSPropertyOp60
 70
     1
102
RTVSPropertyOp61
 70
     1
102
RTVSPropertyOp62
 70
     1
  0
XRECORD
  5
85C7
102
{ACAD_REACTORS
330
85C6
102
}
330
85C6
100
AcDbXrecord
280
     1
102
RTVSPost2010Prop28
280
     0
102
RTVSPost2010PropOp28
 70
     1
102
RTVSPost2010Prop29
280
     1
102
RTVSPost2010PropOp29
 70
     1
102
RTVSPost2010Prop30
280
     1
102
RTVSPost2010PropOp30
 70
     1
102
RTVSPost2010Prop31
280
     0
102
RTVSPost2010PropOp31
 70
     1
102
RTVSPost2010Prop32
280
     0
102
RTVSPost2010PropOp32
 70
     1
102
RTVSPost2010Prop33
280
     0
102
RTVSPost2010PropOp33
 70
     1
102
RTVSPost2010Prop34
280
     0
102
RTVSPost2010PropOp34
 70
     1
102
RTVSPost2010Prop35
280
     0
102
RTVSPost2010PropOp35
 70
     1
102
RTVSPost2010Prop36
280
     0
102
RTVSPost2010PropOp36
 70
     1
102
RTVSPost2010Prop37
 90
       50
102
RTVSPost2010PropOp37
 70
     1
102
RTVSPost2010Prop38
140
0.0
102
RTVSPost2010PropOp38
 70
     1
102
RTVSPost2010Prop39
140
1.0
102
RTVSPost2010PropOp39
 70
     1
102
RTVSPost2010Prop40
 90
        0
102
RTVSPost2010PropOp40
 70
     1
102
RTVSPost2010Prop41ColorIndex
 90
       18
102
RTVSPost2010Prop41ColorRGB
 90
        0
102
RTVSPost2010PropOp41
 70
     1
102
RTVSPost2010Prop42
 90
       50
102
RTVSPost2010PropOp42
 70
     1
102
RTVSPost2010Prop43
 90
        3
102
RTVSPost2010PropOp43
 70
     1
102
RTVSPost2010Prop44ColorIndex
 90
        5
102
RTVSPost2010Prop44ColorRGB
 90
      255
102
RTVSPost2010PropOp44
 70
     1
102
RTVSPost2010Prop45
280
     0
102
RTVSPost2010PropOp45
 70
     1
102
RTVSPost2010Prop46
 90
       50
102
RTVSPost2010PropOp46
 70
     1
102
RTVSPost2010Prop47
 90
       50
102
RTVSPost2010PropOp47
 70
     1
102
RTVSPost2010Prop48
 90
       50
102
RTVSPost2010PropOp48
 70
     1
102
RTVSPost2010Prop49
280
     0
102
RTVSPost2010PropOp49
 70
     1
102
RTVSPost2010Prop50
 90
       50
102
RTVSPost2010PropOp50
 70
     1
102
RTVSPost2010Prop51ColorIndex
 90
      256
102
RTVSPost2010Prop51ColorRGB
 90
-16777216
102
RTVSPost2010PropOp51
 70
     0
102
RTVSPost2010Prop52
140
1.0
102
RTVSPost2010PropOp52
 70
     0
102
RTVSPost2010Prop53
 90
        2
102
RTVSPost2010PropOp53
 70
     1
102
RTVSPost2010Prop54
  1
strokes_ogs.tif
102
RTVSPost2010PropOp54
 70
     1
102
RTVSPost2010Prop55
280
     0
102
RTVSPost2010PropOp55
 70
     1
102
RTVSPost2010Prop56
140
1.0
102
RTVSPost2010PropOp56
 70
     1
102
RTVSPost2010Prop57
140
1.0
102
RTVSPost2010PropOp57
 70
     1
102
RTVSPropertyOp0
 70
     1
102
RTVSPropertyOp1
 70
     1
102
RTVSPropertyOp2
 70
     1
102
RTVSPropertyOp3
 70
     1
102
RTVSPropertyOp4
 70
     1
102
RTVSPropertyOp5
 70
     1
102
RTVSPropertyOp6
 70
     1
102
RTVSPropertyOp7
 70
     1
102
RTVSPropertyOp8
 70
     1
102
RTVSPropertyOp9
 70
     1
102
RTVSPropertyOp10
 70
     1
102
RTVSPropertyOp11
 70
     1
102
RTVSPropertyOp12
 70
     1
102
RTVSPropertyOp13
 70
     1
102
RTVSPropertyOp14
 70
     1
102
RTVSPropertyOp15
 70
     1
102
RTVSPropertyOp16
 70
     1
102
RTVSPropertyOp17
 70
     1
102
RTVSPropertyOp18
 70
     1
102
RTVSPropertyOp19
 70
     1
102
RTVSPropertyOp20
 70
     1
102
RTVSPropertyOp21
 70
     1
102
RTVSPropertyOp22
 70
     1
102
RTVSPropertyOp23
 70
     1
102
RTVSPropertyOp24
 70
     1
102
RTVSPropertyOp25
 70
     1
102
RTVSPropertyOp26
 70
     1
102
RTVSPropertyOp27
 70
     1
102
RTVSPropertyOp28
 70
     1
102
RTVSPropertyOp29
 70
     1
102
RTVSPropertyOp30
 70
     1
102
RTVSPropertyOp31
 70
     1
102
RTVSPropertyOp32
 70
     1
102
RTVSPropertyOp33
 70
     1
102
RTVSPropertyOp34
 70
     1
102
RTVSPropertyOp35
 70
     1
102
RTVSPropertyOp36
 70
     1
102
RTVSPropertyOp37
 70
     1
102
RTVSPropertyOp38
 70
     1
102
RTVSPropertyOp39
 70
     1
102
RTVSPropertyOp40
 70
     1
102
RTVSPropertyOp41
 70
     1
102
RTVSPropertyOp42
 70
     1
102
RTVSPropertyOp43
 70
     1
102
RTVSPropertyOp44
 70
     1
102
RTVSPropertyOp45
 70
     1
102
RTVSPropertyOp46
 70
     1
102
RTVSPropertyOp47
 70
     1
102
RTVSPropertyOp48
 70
     1
102
RTVSPropertyOp49
 70
     1
102
RTVSPropertyOp50
 70
     1
102
RTVSPropertyOp51
 70
     0
102
RTVSPropertyOp52
 70
     0
102
RTVSPropertyOp53
 70
     1
102
RTVSPropertyOp54
 70
     1
102
RTVSPropertyOp55
 70
     1
102
RTVSPropertyOp56
 70
     1
102
RTVSPropertyOp57
 70
     1
102
RTVSPropertyOp58
 70
     1
102
RTVSPropertyOp59
 70
     1
102
RTVSPropertyOp60
 70
     1
102
RTVSPropertyOp61
 70
     1
102
RTVSPropertyOp62
 70
     1
  0
XRECORD
  5
85D7
102
{ACAD_REACTORS
330
85D6
102
}
330
85D6
100
AcDbXrecord
280
     1
102
RTVSPost2010Prop28
280
     0
102
RTVSPost2010PropOp28
 70
     1
102
RTVSPost2010Prop29
280
     1
102
RTVSPost2010PropOp29
 70
     1
102
RTVSPost2010Prop30
280
     1
102
RTVSPost2010PropOp30
 70
     1
102
RTVSPost2010Prop31
280
     0
102
RTVSPost2010PropOp31
 70
     1
102
RTVSPost2010Prop32
280
     0
102
RTVSPost2010PropOp32
 70
     1
102
RTVSPost2010Prop33
280
     0
102
RTVSPost2010PropOp33
 70
     1
102
RTVSPost2010Prop34
280
     0
102
RTVSPost2010PropOp34
 70
     1
102
RTVSPost2010Prop35
280
     0
102
RTVSPost2010PropOp35
 70
     1
102
RTVSPost2010Prop36
280
     0
102
RTVSPost2010PropOp36
 70
     1
102
RTVSPost2010Prop37
 90
       50
102
RTVSPost2010PropOp37
 70
     1
102
RTVSPost2010Prop38
140
0.0
102
RTVSPost2010PropOp38
 70
     1
102
RTVSPost2010Prop39
140
1.0
102
RTVSPost2010PropOp39
 70
     1
102
RTVSPost2010Prop40
 90
        0
102
RTVSPost2010PropOp40
 70
     1
102
RTVSPost2010Prop41ColorIndex
 90
       18
102
RTVSPost2010Prop41ColorRGB
 90
        0
102
RTVSPost2010PropOp41
 70
     1
102
RTVSPost2010Prop42
 90
       50
102
RTVSPost2010PropOp42
 70
     1
102
RTVSPost2010Prop43
 90
        3
102
RTVSPost2010PropOp43
 70
     1
102
RTVSPost2010Prop44ColorIndex
 90
        5
102
RTVSPost2010Prop44ColorRGB
 90
      255
102
RTVSPost2010PropOp44
 70
     1
102
RTVSPost2010Prop45
280
     0
102
RTVSPost2010PropOp45
 70
     1
102
RTVSPost2010Prop46
 90
       50
102
RTVSPost2010PropOp46
 70
     1
102
RTVSPost2010Prop47
 90
       50
102
RTVSPost2010PropOp47
 70
     1
102
RTVSPost2010Prop48
 90
       50
102
RTVSPost2010PropOp48
 70
     1
102
RTVSPost2010Prop49
280
     0
102
RTVSPost2010PropOp49
 70
     1
102
RTVSPost2010Prop50
 90
       50
102
RTVSPost2010PropOp50
 70
     1
102
RTVSPost2010Prop51ColorIndex
 90
      256
102
RTVSPost2010Prop51ColorRGB
 90
-16777216
102
RTVSPost2010PropOp51
 70
     0
102
RTVSPost2010Prop52
140
1.0
102
RTVSPost2010PropOp52
 70
     0
102
RTVSPost2010Prop53
 90
        2
102
RTVSPost2010PropOp53
 70
     1
102
RTVSPost2010Prop54
  1
strokes_ogs.tif
102
RTVSPost2010PropOp54
 70
     1
102
RTVSPost2010Prop55
280
     0
102
RTVSPost2010PropOp55
 70
     1
102
RTVSPost2010Prop56
140
1.0
102
RTVSPost2010PropOp56
 70
     1
102
RTVSPost2010Prop57
140
1.0
102
RTVSPost2010PropOp57
 70
     1
102
RTVSPropertyOp0
 70
     0
102
RTVSPropertyOp1
 70
     0
102
RTVSPropertyOp2
 70
     0
102
RTVSPropertyOp3
 70
     0
102
RTVSPropertyOp4
 70
     0
102
RTVSPropertyOp5
 70
     0
102
RTVSPropertyOp6
 70
     0
102
RTVSPropertyOp7
 70
     0
102
RTVSPropertyOp8
 70
     0
102
RTVSPropertyOp9
 70
     0
102
RTVSPropertyOp10
 70
     0
102
RTVSPropertyOp11
 70
     0
102
RTVSPropertyOp12
 70
     0
102
RTVSPropertyOp13
 70
     0
102
RTVSPropertyOp14
 70
     2
102
RTVSPropertyOp15
 70
     0
102
RTVSPropertyOp16
 70
     0
102
RTVSPropertyOp17
 70
     0
102
RTVSPropertyOp18
 70
     0
102
RTVSPropertyOp19
 70
     0
102
RTVSPropertyOp20
 70
     0
102
RTVSPropertyOp21
 70
     0
102
RTVSPropertyOp22
 70
     0
102
RTVSPropertyOp23
 70
     0
102
RTVSPropertyOp24
 70
     0
102
RTVSPropertyOp25
 70
     0
102
RTVSPropertyOp26
 70
     0
102
RTVSPropertyOp27
 70
     0
102
RTVSPropertyOp28
 70
     1
102
RTVSPropertyOp29
 70
     1
102
RTVSPropertyOp30
 70
     1
102
RTVSPropertyOp31
 70
     1
102
RTVSPropertyOp32
 70
     1
102
RTVSPropertyOp33
 70
     1
102
RTVSPropertyOp34
 70
     1
102
RTVSPropertyOp35
 70
     1
102
RTVSPropertyOp36
 70
     1
102
RTVSPropertyOp37
 70
     1
102
RTVSPropertyOp38
 70
     1
102
RTVSPropertyOp39
 70
     1
102
RTVSPropertyOp40
 70
     1
102
RTVSPropertyOp41
 70
     1
102
RTVSPropertyOp42
 70
     1
102
RTVSPropertyOp43
 70
     1
102
RTVSPropertyOp44
 70
     1
102
RTVSPropertyOp45
 70
     1
102
RTVSPropertyOp46
 70
     1
102
RTVSPropertyOp47
 70
     1
102
RTVSPropertyOp48
 70
     1
102
RTVSPropertyOp49
 70
     1
102
RTVSPropertyOp50
 70
     1
102
RTVSPropertyOp51
 70
     0
102
RTVSPropertyOp52
 70
     0
102
RTVSPropertyOp53
 70
     1
102
RTVSPropertyOp54
 70
     1
102
RTVSPropertyOp55
 70
     1
102
RTVSPropertyOp56
 70
     1
102
RTVSPropertyOp57
 70
     1
102
RTVSPropertyOp58
 70
     1
102
RTVSPropertyOp59
 70
     1
102
RTVSPropertyOp60
 70
     1
102
RTVSPropertyOp61
 70
     1
102
RTVSPropertyOp62
 70
     1
  0
XRECORD
  5
85CF
102
{ACAD_REACTORS
330
85CE
102
}
330
85CE
100
AcDbXrecord
280
     1
102
RTVSPost2010Prop28
280
     0
102
RTVSPost2010PropOp28
 70
     1
102
RTVSPost2010Prop29
280
     1
102
RTVSPost2010PropOp29
 70
     1
102
RTVSPost2010Prop30
280
     1
102
RTVSPost2010PropOp30
 70
     1
102
RTVSPost2010Prop31
280
     0
102
RTVSPost2010PropOp31
 70
     1
102
RTVSPost2010Prop32
280
     0
102
RTVSPost2010PropOp32
 70
     1
102
RTVSPost2010Prop33
280
     0
102
RTVSPost2010PropOp33
 70
     1
102
RTVSPost2010Prop34
280
     0
102
RTVSPost2010PropOp34
 70
     1
102
RTVSPost2010Prop35
280
     0
102
RTVSPost2010PropOp35
 70
     1
102
RTVSPost2010Prop36
280
     0
102
RTVSPost2010PropOp36
 70
     1
102
RTVSPost2010Prop37
 90
       50
102
RTVSPost2010PropOp37
 70
     1
102
RTVSPost2010Prop38
140
0.0
102
RTVSPost2010PropOp38
 70
     1
102
RTVSPost2010Prop39
140
1.0
102
RTVSPost2010PropOp39
 70
     1
102
RTVSPost2010Prop40
 90
        0
102
RTVSPost2010PropOp40
 70
     1
102
RTVSPost2010Prop41ColorIndex
 90
       18
102
RTVSPost2010Prop41ColorRGB
 90
        0
102
RTVSPost2010PropOp41
 70
     1
102
RTVSPost2010Prop42
 90
       50
102
RTVSPost2010PropOp42
 70
     1
102
RTVSPost2010Prop43
 90
        3
102
RTVSPost2010PropOp43
 70
     1
102
RTVSPost2010Prop44ColorIndex
 90
        5
102
RTVSPost2010Prop44ColorRGB
 90
      255
102
RTVSPost2010PropOp44
 70
     1
102
RTVSPost2010Prop45
280
     0
102
RTVSPost2010PropOp45
 70
     1
102
RTVSPost2010Prop46
 90
       50
102
RTVSPost2010PropOp46
 70
     1
102
RTVSPost2010Prop47
 90
       50
102
RTVSPost2010PropOp47
 70
     1
102
RTVSPost2010Prop48
 90
       50
102
RTVSPost2010PropOp48
 70
     1
102
RTVSPost2010Prop49
280
     0
102
RTVSPost2010PropOp49
 70
     1
102
RTVSPost2010Prop50
 90
       50
102
RTVSPost2010PropOp50
 70
     1
102
RTVSPost2010Prop51ColorIndex
 90
      256
102
RTVSPost2010Prop51ColorRGB
 90
-16777216
102
RTVSPost2010PropOp51
 70
     0
102
RTVSPost2010Prop52
140
1.0
102
RTVSPost2010PropOp52
 70
     0
102
RTVSPost2010Prop53
 90
        2
102
RTVSPost2010PropOp53
 70
     1
102
RTVSPost2010Prop54
  1
strokes_ogs.tif
102
RTVSPost2010PropOp54
 70
     1
102
RTVSPost2010Prop55
280
     0
102
RTVSPost2010PropOp55
 70
     1
102
RTVSPost2010Prop56
140
1.0
102
RTVSPost2010PropOp56
 70
     1
102
RTVSPost2010Prop57
140
1.0
102
RTVSPost2010PropOp57
 70
     1
102
RTVSPropertyOp0
 70
     1
102
RTVSPropertyOp1
 70
     1
102
RTVSPropertyOp2
 70
     1
102
RTVSPropertyOp3
 70
     1
102
RTVSPropertyOp4
 70
     1
102
RTVSPropertyOp5
 70
     1
102
RTVSPropertyOp6
 70
     1
102
RTVSPropertyOp7
 70
     1
102
RTVSPropertyOp8
 70
     1
102
RTVSPropertyOp9
 70
     1
102
RTVSPropertyOp10
 70
     1
102
RTVSPropertyOp11
 70
     1
102
RTVSPropertyOp12
 70
     1
102
RTVSPropertyOp13
 70
     1
102
RTVSPropertyOp14
 70
     1
102
RTVSPropertyOp15
 70
     1
102
RTVSPropertyOp16
 70
     1
102
RTVSPropertyOp17
 70
     1
102
RTVSPropertyOp18
 70
     1
102
RTVSPropertyOp19
 70
     1
102
RTVSPropertyOp20
 70
     1
102
RTVSPropertyOp21
 70
     1
102
RTVSPropertyOp22
 70
     1
102
RTVSPropertyOp23
 70
     1
102
RTVSPropertyOp24
 70
     1
102
RTVSPropertyOp25
 70
     1
102
RTVSPropertyOp26
 70
     1
102
RTVSPropertyOp27
 70
     1
102
RTVSPropertyOp28
 70
     1
102
RTVSPropertyOp29
 70
     1
102
RTVSPropertyOp30
 70
     1
102
RTVSPropertyOp31
 70
     1
102
RTVSPropertyOp32
 70
     1
102
RTVSPropertyOp33
 70
     1
102
RTVSPropertyOp34
 70
     1
102
RTVSPropertyOp35
 70
     1
102
RTVSPropertyOp36
 70
     1
102
RTVSPropertyOp37
 70
     1
102
RTVSPropertyOp38
 70
     1
102
RTVSPropertyOp39
 70
     1
102
RTVSPropertyOp40
 70
     1
102
RTVSPropertyOp41
 70
     1
102
RTVSPropertyOp42
 70
     1
102
RTVSPropertyOp43
 70
     1
102
RTVSPropertyOp44
 70
     1
102
RTVSPropertyOp45
 70
     1
102
RTVSPropertyOp46
 70
     1
102
RTVSPropertyOp47
 70
     1
102
RTVSPropertyOp48
 70
     1
102
RTVSPropertyOp49
 70
     1
102
RTVSPropertyOp50
 70
     1
102
RTVSPropertyOp51
 70
     0
102
RTVSPropertyOp52
 70
     0
102
RTVSPropertyOp53
 70
     1
102
RTVSPropertyOp54
 70
     1
102
RTVSPropertyOp55
 70
     1
102
RTVSPropertyOp56
 70
     1
102
RTVSPropertyOp57
 70
     1
102
RTVSPropertyOp58
 70
     1
102
RTVSPropertyOp59
 70
     1
102
RTVSPropertyOp60
 70
     1
102
RTVSPropertyOp61
 70
     1
102
RTVSPropertyOp62
 70
     1
  0
XRECORD
  5
85B3
102
{ACAD_REACTORS
330
85B2
102
}
330
85B2
100
AcDbXrecord
280
     1
102
RTVSPost2010Prop28
280
     0
102
RTVSPost2010PropOp28
 70
     1
102
RTVSPost2010Prop29
280
     1
102
RTVSPost2010PropOp29
 70
     1
102
RTVSPost2010Prop30
280
     1
102
RTVSPost2010PropOp30
 70
     1
102
RTVSPost2010Prop31
280
     0
102
RTVSPost2010PropOp31
 70
     1
102
RTVSPost2010Prop32
280
     0
102
RTVSPost2010PropOp32
 70
     1
102
RTVSPost2010Prop33
280
     0
102
RTVSPost2010PropOp33
 70
     1
102
RTVSPost2010Prop34
280
     0
102
RTVSPost2010PropOp34
 70
     1
102
RTVSPost2010Prop35
280
     0
102
RTVSPost2010PropOp35
 70
     1
102
RTVSPost2010Prop36
280
     0
102
RTVSPost2010PropOp36
 70
     1
102
RTVSPost2010Prop37
 90
       50
102
RTVSPost2010PropOp37
 70
     1
102
RTVSPost2010Prop38
140
0.0
102
RTVSPost2010PropOp38
 70
     1
102
RTVSPost2010Prop39
140
1.0
102
RTVSPost2010PropOp39
 70
     1
102
RTVSPost2010Prop40
 90
        0
102
RTVSPost2010PropOp40
 70
     1
102
RTVSPost2010Prop41ColorIndex
 90
       18
102
RTVSPost2010Prop41ColorRGB
 90
        0
102
RTVSPost2010PropOp41
 70
     1
102
RTVSPost2010Prop42
 90
       50
102
RTVSPost2010PropOp42
 70
     1
102
RTVSPost2010Prop43
 90
        3
102
RTVSPost2010PropOp43
 70
     1
102
RTVSPost2010Prop44ColorIndex
 90
        5
102
RTVSPost2010Prop44ColorRGB
 90
      255
102
RTVSPost2010PropOp44
 70
     1
102
RTVSPost2010Prop45
280
     0
102
RTVSPost2010PropOp45
 70
     1
102
RTVSPost2010Prop46
 90
       50
102
RTVSPost2010PropOp46
 70
     1
102
RTVSPost2010Prop47
 90
       50
102
RTVSPost2010PropOp47
 70
     1
102
RTVSPost2010Prop48
 90
       50
102
RTVSPost2010PropOp48
 70
     1
102
RTVSPost2010Prop49
280
     0
102
RTVSPost2010PropOp49
 70
     1
102
RTVSPost2010Prop50
 90
       50
102
RTVSPost2010PropOp50
 70
     1
102
RTVSPost2010Prop51ColorIndex
 90
      256
102
RTVSPost2010Prop51ColorRGB
 90
-16777216
102
RTVSPost2010PropOp51
 70
     0
102
RTVSPost2010Prop52
140
1.0
102
RTVSPost2010PropOp52
 70
     0
102
RTVSPost2010Prop53
 90
        2
102
RTVSPost2010PropOp53
 70
     1
102
RTVSPost2010Prop54
  1
strokes_ogs.tif
102
RTVSPost2010PropOp54
 70
     1
102
RTVSPost2010Prop55
280
     0
102
RTVSPost2010PropOp55
 70
     1
102
RTVSPost2010Prop56
140
1.0
102
RTVSPost2010PropOp56
 70
     1
102
RTVSPost2010Prop57
140
1.0
102
RTVSPost2010PropOp57
 70
     1
102
RTVSPropertyOp0
 70
     1
102
RTVSPropertyOp1
 70
     1
102
RTVSPropertyOp2
 70
     1
102
RTVSPropertyOp3
 70
     1
102
RTVSPropertyOp4
 70
     1
102
RTVSPropertyOp5
 70
     1
102
RTVSPropertyOp6
 70
     1
102
RTVSPropertyOp7
 70
     1
102
RTVSPropertyOp8
 70
     1
102
RTVSPropertyOp9
 70
     1
102
RTVSPropertyOp10
 70
     1
102
RTVSPropertyOp11
 70
     1
102
RTVSPropertyOp12
 70
     1
102
RTVSPropertyOp13
 70
     1
102
RTVSPropertyOp14
 70
     1
102
RTVSPropertyOp15
 70
     1
102
RTVSPropertyOp16
 70
     1
102
RTVSPropertyOp17
 70
     1
102
RTVSPropertyOp18
 70
     1
102
RTVSPropertyOp19
 70
     1
102
RTVSPropertyOp20
 70
     1
102
RTVSPropertyOp21
 70
     1
102
RTVSPropertyOp22
 70
     1
102
RTVSPropertyOp23
 70
     1
102
RTVSPropertyOp24
 70
     1
102
RTVSPropertyOp25
 70
     1
102
RTVSPropertyOp26
 70
     1
102
RTVSPropertyOp27
 70
     1
102
RTVSPropertyOp28
 70
     1
102
RTVSPropertyOp29
 70
     1
102
RTVSPropertyOp30
 70
     1
102
RTVSPropertyOp31
 70
     1
102
RTVSPropertyOp32
 70
     1
102
RTVSPropertyOp33
 70
     1
102
RTVSPropertyOp34
 70
     1
102
RTVSPropertyOp35
 70
     1
102
RTVSPropertyOp36
 70
     1
102
RTVSPropertyOp37
 70
     1
102
RTVSPropertyOp38
 70
     1
102
RTVSPropertyOp39
 70
     1
102
RTVSPropertyOp40
 70
     1
102
RTVSPropertyOp41
 70
     1
102
RTVSPropertyOp42
 70
     1
102
RTVSPropertyOp43
 70
     1
102
RTVSPropertyOp44
 70
     1
102
RTVSPropertyOp45
 70
     1
102
RTVSPropertyOp46
 70
     1
102
RTVSPropertyOp47
 70
     1
102
RTVSPropertyOp48
 70
     1
102
RTVSPropertyOp49
 70
     1
102
RTVSPropertyOp50
 70
     1
102
RTVSPropertyOp51
 70
     0
102
RTVSPropertyOp52
 70
     0
102
RTVSPropertyOp53
 70
     1
102
RTVSPropertyOp54
 70
     1
102
RTVSPropertyOp55
 70
     1
102
RTVSPropertyOp56
 70
     1
102
RTVSPropertyOp57
 70
     1
102
RTVSPropertyOp58
 70
     1
102
RTVSPropertyOp59
 70
     1
102
RTVSPropertyOp60
 70
     1
102
RTVSPropertyOp61
 70
     1
102
RTVSPropertyOp62
 70
     1
  0
XRECORD
  5
85B5
102
{ACAD_REACTORS
330
85B4
102
}
330
85B4
100
AcDbXrecord
280
     1
102
RTVSPost2010Prop28
280
     0
102
RTVSPost2010PropOp28
 70
     1
102
RTVSPost2010Prop29
280
     1
102
RTVSPost2010PropOp29
 70
     1
102
RTVSPost2010Prop30
280
     1
102
RTVSPost2010PropOp30
 70
     1
102
RTVSPost2010Prop31
280
     0
102
RTVSPost2010PropOp31
 70
     1
102
RTVSPost2010Prop32
280
     0
102
RTVSPost2010PropOp32
 70
     1
102
RTVSPost2010Prop33
280
     0
102
RTVSPost2010PropOp33
 70
     1
102
RTVSPost2010Prop34
280
     0
102
RTVSPost2010PropOp34
 70
     1
102
RTVSPost2010Prop35
280
     0
102
RTVSPost2010PropOp35
 70
     1
102
RTVSPost2010Prop36
280
     0
102
RTVSPost2010PropOp36
 70
     1
102
RTVSPost2010Prop37
 90
       50
102
RTVSPost2010PropOp37
 70
     1
102
RTVSPost2010Prop38
140
0.0
102
RTVSPost2010PropOp38
 70
     1
102
RTVSPost2010Prop39
140
1.0
102
RTVSPost2010PropOp39
 70
     1
102
RTVSPost2010Prop40
 90
        0
102
RTVSPost2010PropOp40
 70
     1
102
RTVSPost2010Prop41ColorIndex
 90
       18
102
RTVSPost2010Prop41ColorRGB
 90
        0
102
RTVSPost2010PropOp41
 70
     1
102
RTVSPost2010Prop42
 90
       50
102
RTVSPost2010PropOp42
 70
     1
102
RTVSPost2010Prop43
 90
        3
102
RTVSPost2010PropOp43
 70
     1
102
RTVSPost2010Prop44ColorIndex
 90
        5
102
RTVSPost2010Prop44ColorRGB
 90
      255
102
RTVSPost2010PropOp44
 70
     1
102
RTVSPost2010Prop45
280
     0
102
RTVSPost2010PropOp45
 70
     1
102
RTVSPost2010Prop46
 90
       50
102
RTVSPost2010PropOp46
 70
     1
102
RTVSPost2010Prop47
 90
       50
102
RTVSPost2010PropOp47
 70
     1
102
RTVSPost2010Prop48
 90
       50
102
RTVSPost2010PropOp48
 70
     1
102
RTVSPost2010Prop49
280
     0
102
RTVSPost2010PropOp49
 70
     1
102
RTVSPost2010Prop50
 90
       50
102
RTVSPost2010PropOp50
 70
     1
102
RTVSPost2010Prop51ColorIndex
 90
      256
102
RTVSPost2010Prop51ColorRGB
 90
-16777216
102
RTVSPost2010PropOp51
 70
     0
102
RTVSPost2010Prop52
140
1.0
102
RTVSPost2010PropOp52
 70
     0
102
RTVSPost2010Prop53
 90
        2
102
RTVSPost2010PropOp53
 70
     1
102
RTVSPost2010Prop54
  1
strokes_ogs.tif
102
RTVSPost2010PropOp54
 70
     1
102
RTVSPost2010Prop55
280
     0
102
RTVSPost2010PropOp55
 70
     1
102
RTVSPost2010Prop56
140
1.0
102
RTVSPost2010PropOp56
 70
     1
102
RTVSPost2010Prop57
140
1.0
102
RTVSPost2010PropOp57
 70
     1
102
RTVSPropertyOp0
 70
     1
102
RTVSPropertyOp1
 70
     1
102
RTVSPropertyOp2
 70
     1
102
RTVSPropertyOp3
 70
     1
102
RTVSPropertyOp4
 70
     1
102
RTVSPropertyOp5
 70
     1
102
RTVSPropertyOp6
 70
     1
102
RTVSPropertyOp7
 70
     1
102
RTVSPropertyOp8
 70
     1
102
RTVSPropertyOp9
 70
     1
102
RTVSPropertyOp10
 70
     1
102
RTVSPropertyOp11
 70
     1
102
RTVSPropertyOp12
 70
     1
102
RTVSPropertyOp13
 70
     1
102
RTVSPropertyOp14
 70
     1
102
RTVSPropertyOp15
 70
     1
102
RTVSPropertyOp16
 70
     1
102
RTVSPropertyOp17
 70
     1
102
RTVSPropertyOp18
 70
     1
102
RTVSPropertyOp19
 70
     1
102
RTVSPropertyOp20
 70
     1
102
RTVSPropertyOp21
 70
     1
102
RTVSPropertyOp22
 70
     1
102
RTVSPropertyOp23
 70
     1
102
RTVSPropertyOp24
 70
     1
102
RTVSPropertyOp25
 70
     1
102
RTVSPropertyOp26
 70
     1
102
RTVSPropertyOp27
 70
     1
102
RTVSPropertyOp28
 70
     1
102
RTVSPropertyOp29
 70
     1
102
RTVSPropertyOp30
 70
     1
102
RTVSPropertyOp31
 70
     1
102
RTVSPropertyOp32
 70
     1
102
RTVSPropertyOp33
 70
     1
102
RTVSPropertyOp34
 70
     1
102
RTVSPropertyOp35
 70
     1
102
RTVSPropertyOp36
 70
     1
102
RTVSPropertyOp37
 70
     1
102
RTVSPropertyOp38
 70
     1
102
RTVSPropertyOp39
 70
     1
102
RTVSPropertyOp40
 70
     1
102
RTVSPropertyOp41
 70
     1
102
RTVSPropertyOp42
 70
     1
102
RTVSPropertyOp43
 70
     1
102
RTVSPropertyOp44
 70
     1
102
RTVSPropertyOp45
 70
     1
102
RTVSPropertyOp46
 70
     1
102
RTVSPropertyOp47
 70
     1
102
RTVSPropertyOp48
 70
     1
102
RTVSPropertyOp49
 70
     1
102
RTVSPropertyOp50
 70
     1
102
RTVSPropertyOp51
 70
     0
102
RTVSPropertyOp52
 70
     0
102
RTVSPropertyOp53
 70
     1
102
RTVSPropertyOp54
 70
     1
102
RTVSPropertyOp55
 70
     1
102
RTVSPropertyOp56
 70
     1
102
RTVSPropertyOp57
 70
     1
102
RTVSPropertyOp58
 70
     1
102
RTVSPropertyOp59
 70
     1
102
RTVSPropertyOp60
 70
     1
102
RTVSPropertyOp61
 70
     1
102
RTVSPropertyOp62
 70
     1
  0
XRECORD
  5
85B7
102
{ACAD_REACTORS
330
85B6
102
}
330
85B6
100
AcDbXrecord
280
     1
102
RTVSPost2010Prop28
280
     0
102
RTVSPost2010PropOp28
 70
     1
102
RTVSPost2010Prop29
280
     1
102
RTVSPost2010PropOp29
 70
     1
102
RTVSPost2010Prop30
280
     1
102
RTVSPost2010PropOp30
 70
     1
102
RTVSPost2010Prop31
280
     0
102
RTVSPost2010PropOp31
 70
     1
102
RTVSPost2010Prop32
280
     0
102
RTVSPost2010PropOp32
 70
     1
102
RTVSPost2010Prop33
280
     0
102
RTVSPost2010PropOp33
 70
     1
102
RTVSPost2010Prop34
280
     0
102
RTVSPost2010PropOp34
 70
     1
102
RTVSPost2010Prop35
280
     0
102
RTVSPost2010PropOp35
 70
     1
102
RTVSPost2010Prop36
280
     0
102
RTVSPost2010PropOp36
 70
     1
102
RTVSPost2010Prop37
 90
       50
102
RTVSPost2010PropOp37
 70
     1
102
RTVSPost2010Prop38
140
0.0
102
RTVSPost2010PropOp38
 70
     1
102
RTVSPost2010Prop39
140
1.0
102
RTVSPost2010PropOp39
 70
     1
102
RTVSPost2010Prop40
 90
        0
102
RTVSPost2010PropOp40
 70
     1
102
RTVSPost2010Prop41ColorIndex
 90
       18
102
RTVSPost2010Prop41ColorRGB
 90
        0
102
RTVSPost2010PropOp41
 70
     1
102
RTVSPost2010Prop42
 90
       50
102
RTVSPost2010PropOp42
 70
     1
102
RTVSPost2010Prop43
 90
        3
102
RTVSPost2010PropOp43
 70
     1
102
RTVSPost2010Prop44ColorIndex
 90
        5
102
RTVSPost2010Prop44ColorRGB
 90
      255
102
RTVSPost2010PropOp44
 70
     1
102
RTVSPost2010Prop45
280
     0
102
RTVSPost2010PropOp45
 70
     1
102
RTVSPost2010Prop46
 90
       50
102
RTVSPost2010PropOp46
 70
     1
102
RTVSPost2010Prop47
 90
       50
102
RTVSPost2010PropOp47
 70
     1
102
RTVSPost2010Prop48
 90
       50
102
RTVSPost2010PropOp48
 70
     1
102
RTVSPost2010Prop49
280
     0
102
RTVSPost2010PropOp49
 70
     1
102
RTVSPost2010Prop50
 90
       50
102
RTVSPost2010PropOp50
 70
     1
102
RTVSPost2010Prop51ColorIndex
 90
      256
102
RTVSPost2010Prop51ColorRGB
 90
-16777216
102
RTVSPost2010PropOp51
 70
     0
102
RTVSPost2010Prop52
140
1.0
102
RTVSPost2010PropOp52
 70
     0
102
RTVSPost2010Prop53
 90
        2
102
RTVSPost2010PropOp53
 70
     1
102
RTVSPost2010Prop54
  1
strokes_ogs.tif
102
RTVSPost2010PropOp54
 70
     1
102
RTVSPost2010Prop55
280
     0
102
RTVSPost2010PropOp55
 70
     1
102
RTVSPost2010Prop56
140
1.0
102
RTVSPost2010PropOp56
 70
     1
102
RTVSPost2010Prop57
140
1.0
102
RTVSPost2010PropOp57
 70
     1
102
RTVSPropertyOp0
 70
     1
102
RTVSPropertyOp1
 70
     1
102
RTVSPropertyOp2
 70
     1
102
RTVSPropertyOp3
 70
     1
102
RTVSPropertyOp4
 70
     1
102
RTVSPropertyOp5
 70
     1
102
RTVSPropertyOp6
 70
     1
102
RTVSPropertyOp7
 70
     1
102
RTVSPropertyOp8
 70
     1
102
RTVSPropertyOp9
 70
     1
102
RTVSPropertyOp10
 70
     1
102
RTVSPropertyOp11
 70
     1
102
RTVSPropertyOp12
 70
     1
102
RTVSPropertyOp13
 70
     1
102
RTVSPropertyOp14
 70
     1
102
RTVSPropertyOp15
 70
     1
102
RTVSPropertyOp16
 70
     1
102
RTVSPropertyOp17
 70
     1
102
RTVSPropertyOp18
 70
     1
102
RTVSPropertyOp19
 70
     1
102
RTVSPropertyOp20
 70
     1
102
RTVSPropertyOp21
 70
     1
102
RTVSPropertyOp22
 70
     1
102
RTVSPropertyOp23
 70
     1
102
RTVSPropertyOp24
 70
     1
102
RTVSPropertyOp25
 70
     1
102
RTVSPropertyOp26
 70
     1
102
RTVSPropertyOp27
 70
     1
102
RTVSPropertyOp28
 70
     1
102
RTVSPropertyOp29
 70
     1
102
RTVSPropertyOp30
 70
     1
102
RTVSPropertyOp31
 70
     1
102
RTVSPropertyOp32
 70
     1
102
RTVSPropertyOp33
 70
     1
102
RTVSPropertyOp34
 70
     1
102
RTVSPropertyOp35
 70
     1
102
RTVSPropertyOp36
 70
     1
102
RTVSPropertyOp37
 70
     1
102
RTVSPropertyOp38
 70
     1
102
RTVSPropertyOp39
 70
     1
102
RTVSPropertyOp40
 70
     1
102
RTVSPropertyOp41
 70
     1
102
RTVSPropertyOp42
 70
     1
102
RTVSPropertyOp43
 70
     1
102
RTVSPropertyOp44
 70
     1
102
RTVSPropertyOp45
 70
     1
102
RTVSPropertyOp46
 70
     1
102
RTVSPropertyOp47
 70
     1
102
RTVSPropertyOp48
 70
     1
102
RTVSPropertyOp49
 70
     1
102
RTVSPropertyOp50
 70
     1
102
RTVSPropertyOp51
 70
     0
102
RTVSPropertyOp52
 70
     0
102
RTVSPropertyOp53
 70
     1
102
RTVSPropertyOp54
 70
     1
102
RTVSPropertyOp55
 70
     1
102
RTVSPropertyOp56
 70
     1
102
RTVSPropertyOp57
 70
     1
102
RTVSPropertyOp58
 70
     1
102
RTVSPropertyOp59
 70
     1
102
RTVSPropertyOp60
 70
     1
102
RTVSPropertyOp61
 70
     1
102
RTVSPropertyOp62
 70
     1
  0
XRECORD
  5
85B9
102
{ACAD_REACTORS
330
85B8
102
}
330
85B8
100
AcDbXrecord
280
     1
102
RTVSPost2010Prop28
280
     0
102
RTVSPost2010PropOp28
 70
     1
102
RTVSPost2010Prop29
280
     1
102
RTVSPost2010PropOp29
 70
     1
102
RTVSPost2010Prop30
280
     1
102
RTVSPost2010PropOp30
 70
     1
102
RTVSPost2010Prop31
280
     0
102
RTVSPost2010PropOp31
 70
     1
102
RTVSPost2010Prop32
280
     0
102
RTVSPost2010PropOp32
 70
     1
102
RTVSPost2010Prop33
280
     0
102
RTVSPost2010PropOp33
 70
     1
102
RTVSPost2010Prop34
280
     0
102
RTVSPost2010PropOp34
 70
     1
102
RTVSPost2010Prop35
280
     0
102
RTVSPost2010PropOp35
 70
     1
102
RTVSPost2010Prop36
280
     0
102
RTVSPost2010PropOp36
 70
     1
102
RTVSPost2010Prop37
 90
       50
102
RTVSPost2010PropOp37
 70
     1
102
RTVSPost2010Prop38
140
0.0
102
RTVSPost2010PropOp38
 70
     1
102
RTVSPost2010Prop39
140
1.0
102
RTVSPost2010PropOp39
 70
     1
102
RTVSPost2010Prop40
 90
        0
102
RTVSPost2010PropOp40
 70
     1
102
RTVSPost2010Prop41ColorIndex
 90
       18
102
RTVSPost2010Prop41ColorRGB
 90
        0
102
RTVSPost2010PropOp41
 70
     1
102
RTVSPost2010Prop42
 90
       50
102
RTVSPost2010PropOp42
 70
     1
102
RTVSPost2010Prop43
 90
        3
102
RTVSPost2010PropOp43
 70
     1
102
RTVSPost2010Prop44ColorIndex
 90
        5
102
RTVSPost2010Prop44ColorRGB
 90
      255
102
RTVSPost2010PropOp44
 70
     1
102
RTVSPost2010Prop45
280
     0
102
RTVSPost2010PropOp45
 70
     1
102
RTVSPost2010Prop46
 90
       50
102
RTVSPost2010PropOp46
 70
     1
102
RTVSPost2010Prop47
 90
       50
102
RTVSPost2010PropOp47
 70
     1
102
RTVSPost2010Prop48
 90
       50
102
RTVSPost2010PropOp48
 70
     1
102
RTVSPost2010Prop49
280
     0
102
RTVSPost2010PropOp49
 70
     1
102
RTVSPost2010Prop50
 90
       50
102
RTVSPost2010PropOp50
 70
     1
102
RTVSPost2010Prop51ColorIndex
 90
      256
102
RTVSPost2010Prop51ColorRGB
 90
-16777216
102
RTVSPost2010PropOp51
 70
     0
102
RTVSPost2010Prop52
140
1.0
102
RTVSPost2010PropOp52
 70
     0
102
RTVSPost2010Prop53
 90
        2
102
RTVSPost2010PropOp53
 70
     1
102
RTVSPost2010Prop54
  1
strokes_ogs.tif
102
RTVSPost2010PropOp54
 70
     1
102
RTVSPost2010Prop55
280
     0
102
RTVSPost2010PropOp55
 70
     1
102
RTVSPost2010Prop56
140
1.0
102
RTVSPost2010PropOp56
 70
     1
102
RTVSPost2010Prop57
140
1.0
102
RTVSPost2010PropOp57
 70
     1
102
RTVSPropertyOp0
 70
     1
102
RTVSPropertyOp1
 70
     1
102
RTVSPropertyOp2
 70
     1
102
RTVSPropertyOp3
 70
     1
102
RTVSPropertyOp4
 70
     1
102
RTVSPropertyOp5
 70
     1
102
RTVSPropertyOp6
 70
     1
102
RTVSPropertyOp7
 70
     1
102
RTVSPropertyOp8
 70
     1
102
RTVSPropertyOp9
 70
     1
102
RTVSPropertyOp10
 70
     1
102
RTVSPropertyOp11
 70
     1
102
RTVSPropertyOp12
 70
     1
102
RTVSPropertyOp13
 70
     1
102
RTVSPropertyOp14
 70
     1
102
RTVSPropertyOp15
 70
     1
102
RTVSPropertyOp16
 70
     1
102
RTVSPropertyOp17
 70
     1
102
RTVSPropertyOp18
 70
     1
102
RTVSPropertyOp19
 70
     1
102
RTVSPropertyOp20
 70
     1
102
RTVSPropertyOp21
 70
     1
102
RTVSPropertyOp22
 70
     1
102
RTVSPropertyOp23
 70
     1
102
RTVSPropertyOp24
 70
     1
102
RTVSPropertyOp25
 70
     1
102
RTVSPropertyOp26
 70
     1
102
RTVSPropertyOp27
 70
     1
102
RTVSPropertyOp28
 70
     1
102
RTVSPropertyOp29
 70
     1
102
RTVSPropertyOp30
 70
     1
102
RTVSPropertyOp31
 70
     1
102
RTVSPropertyOp32
 70
     1
102
RTVSPropertyOp33
 70
     1
102
RTVSPropertyOp34
 70
     1
102
RTVSPropertyOp35
 70
     1
102
RTVSPropertyOp36
 70
     1
102
RTVSPropertyOp37
 70
     1
102
RTVSPropertyOp38
 70
     1
102
RTVSPropertyOp39
 70
     1
102
RTVSPropertyOp40
 70
     1
102
RTVSPropertyOp41
 70
     1
102
RTVSPropertyOp42
 70
     1
102
RTVSPropertyOp43
 70
     1
102
RTVSPropertyOp44
 70
     1
102
RTVSPropertyOp45
 70
     1
102
RTVSPropertyOp46
 70
     1
102
RTVSPropertyOp47
 70
     1
102
RTVSPropertyOp48
 70
     1
102
RTVSPropertyOp49
 70
     1
102
RTVSPropertyOp50
 70
     1
102
RTVSPropertyOp51
 70
     0
102
RTVSPropertyOp52
 70
     0
102
RTVSPropertyOp53
 70
     1
102
RTVSPropertyOp54
 70
     1
102
RTVSPropertyOp55
 70
     1
102
RTVSPropertyOp56
 70
     1
102
RTVSPropertyOp57
 70
     1
102
RTVSPropertyOp58
 70
     1
102
RTVSPropertyOp59
 70
     1
102
RTVSPropertyOp60
 70
     1
102
RTVSPropertyOp61
 70
     1
102
RTVSPropertyOp62
 70
     1
  0
XRECORD
  5
85BF
102
{ACAD_REACTORS
330
85BE
102
}
330
85BE
100
AcDbXrecord
280
     1
102
RTVSPost2010Prop28
280
     0
102
RTVSPost2010PropOp28
 70
     1
102
RTVSPost2010Prop29
280
     1
102
RTVSPost2010PropOp29
 70
     1
102
RTVSPost2010Prop30
280
     1
102
RTVSPost2010PropOp30
 70
     1
102
RTVSPost2010Prop31
280
     0
102
RTVSPost2010PropOp31
 70
     1
102
RTVSPost2010Prop32
280
     0
102
RTVSPost2010PropOp32
 70
     1
102
RTVSPost2010Prop33
280
     0
102
RTVSPost2010PropOp33
 70
     1
102
RTVSPost2010Prop34
280
     0
102
RTVSPost2010PropOp34
 70
     1
102
RTVSPost2010Prop35
280
     0
102
RTVSPost2010PropOp35
 70
     1
102
RTVSPost2010Prop36
280
     0
102
RTVSPost2010PropOp36
 70
     1
102
RTVSPost2010Prop37
 90
       50
102
RTVSPost2010PropOp37
 70
     1
102
RTVSPost2010Prop38
140
0.0
102
RTVSPost2010PropOp38
 70
     1
102
RTVSPost2010Prop39
140
1.0
102
RTVSPost2010PropOp39
 70
     1
102
RTVSPost2010Prop40
 90
        0
102
RTVSPost2010PropOp40
 70
     1
102
RTVSPost2010Prop41ColorIndex
 90
       18
102
RTVSPost2010Prop41ColorRGB
 90
        0
102
RTVSPost2010PropOp41
 70
     1
102
RTVSPost2010Prop42
 90
       50
102
RTVSPost2010PropOp42
 70
     1
102
RTVSPost2010Prop43
 90
        3
102
RTVSPost2010PropOp43
 70
     1
102
RTVSPost2010Prop44ColorIndex
 90
        5
102
RTVSPost2010Prop44ColorRGB
 90
      255
102
RTVSPost2010PropOp44
 70
     1
102
RTVSPost2010Prop45
280
     0
102
RTVSPost2010PropOp45
 70
     1
102
RTVSPost2010Prop46
 90
       50
102
RTVSPost2010PropOp46
 70
     1
102
RTVSPost2010Prop47
 90
       50
102
RTVSPost2010PropOp47
 70
     1
102
RTVSPost2010Prop48
 90
       50
102
RTVSPost2010PropOp48
 70
     1
102
RTVSPost2010Prop49
280
     0
102
RTVSPost2010PropOp49
 70
     1
102
RTVSPost2010Prop50
 90
       50
102
RTVSPost2010PropOp50
 70
     1
102
RTVSPost2010Prop51ColorIndex
 90
      256
102
RTVSPost2010Prop51ColorRGB
 90
-16777216
102
RTVSPost2010PropOp51
 70
     0
102
RTVSPost2010Prop52
140
1.0
102
RTVSPost2010PropOp52
 70
     0
102
RTVSPost2010Prop53
 90
        2
102
RTVSPost2010PropOp53
 70
     1
102
RTVSPost2010Prop54
  1
strokes_ogs.tif
102
RTVSPost2010PropOp54
 70
     1
102
RTVSPost2010Prop55
280
     0
102
RTVSPost2010PropOp55
 70
     1
102
RTVSPost2010Prop56
140
1.0
102
RTVSPost2010PropOp56
 70
     1
102
RTVSPost2010Prop57
140
1.0
102
RTVSPost2010PropOp57
 70
     1
102
RTVSPropertyOp0
 70
     1
102
RTVSPropertyOp1
 70
     1
102
RTVSPropertyOp2
 70
     1
102
RTVSPropertyOp3
 70
     1
102
RTVSPropertyOp4
 70
     1
102
RTVSPropertyOp5
 70
     1
102
RTVSPropertyOp6
 70
     1
102
RTVSPropertyOp7
 70
     1
102
RTVSPropertyOp8
 70
     1
102
RTVSPropertyOp9
 70
     1
102
RTVSPropertyOp10
 70
     1
102
RTVSPropertyOp11
 70
     1
102
RTVSPropertyOp12
 70
     1
102
RTVSPropertyOp13
 70
     1
102
RTVSPropertyOp14
 70
     1
102
RTVSPropertyOp15
 70
     1
102
RTVSPropertyOp16
 70
     1
102
RTVSPropertyOp17
 70
     1
102
RTVSPropertyOp18
 70
     1
102
RTVSPropertyOp19
 70
     1
102
RTVSPropertyOp20
 70
     1
102
RTVSPropertyOp21
 70
     1
102
RTVSPropertyOp22
 70
     1
102
RTVSPropertyOp23
 70
     1
102
RTVSPropertyOp24
 70
     1
102
RTVSPropertyOp25
 70
     1
102
RTVSPropertyOp26
 70
     1
102
RTVSPropertyOp27
 70
     1
102
RTVSPropertyOp28
 70
     1
102
RTVSPropertyOp29
 70
     1
102
RTVSPropertyOp30
 70
     1
102
RTVSPropertyOp31
 70
     1
102
RTVSPropertyOp32
 70
     1
102
RTVSPropertyOp33
 70
     1
102
RTVSPropertyOp34
 70
     1
102
RTVSPropertyOp35
 70
     1
102
RTVSPropertyOp36
 70
     1
102
RTVSPropertyOp37
 70
     1
102
RTVSPropertyOp38
 70
     1
102
RTVSPropertyOp39
 70
     1
102
RTVSPropertyOp40
 70
     1
102
RTVSPropertyOp41
 70
     1
102
RTVSPropertyOp42
 70
     1
102
RTVSPropertyOp43
 70
     1
102
RTVSPropertyOp44
 70
     1
102
RTVSPropertyOp45
 70
     1
102
RTVSPropertyOp46
 70
     1
102
RTVSPropertyOp47
 70
     1
102
RTVSPropertyOp48
 70
     1
102
RTVSPropertyOp49
 70
     1
102
RTVSPropertyOp50
 70
     1
102
RTVSPropertyOp51
 70
     0
102
RTVSPropertyOp52
 70
     0
102
RTVSPropertyOp53
 70
     1
102
RTVSPropertyOp54
 70
     1
102
RTVSPropertyOp55
 70
     1
102
RTVSPropertyOp56
 70
     1
102
RTVSPropertyOp57
 70
     1
102
RTVSPropertyOp58
 70
     1
102
RTVSPropertyOp59
 70
     1
102
RTVSPropertyOp60
 70
     1
102
RTVSPropertyOp61
 70
     1
102
RTVSPropertyOp62
 70
     1
  0
XRECORD
  5
85D3
102
{ACAD_REACTORS
330
85D2
102
}
330
85D2
100
AcDbXrecord
280
     1
102
RTVSPost2010Prop28
280
     0
102
RTVSPost2010PropOp28
 70
     1
102
RTVSPost2010Prop29
280
     1
102
RTVSPost2010PropOp29
 70
     1
102
RTVSPost2010Prop30
280
     1
102
RTVSPost2010PropOp30
 70
     1
102
RTVSPost2010Prop31
280
     0
102
RTVSPost2010PropOp31
 70
     1
102
RTVSPost2010Prop32
280
     0
102
RTVSPost2010PropOp32
 70
     1
102
RTVSPost2010Prop33
280
     0
102
RTVSPost2010PropOp33
 70
     1
102
RTVSPost2010Prop34
280
     0
102
RTVSPost2010PropOp34
 70
     1
102
RTVSPost2010Prop35
280
     0
102
RTVSPost2010PropOp35
 70
     1
102
RTVSPost2010Prop36
280
     0
102
RTVSPost2010PropOp36
 70
     1
102
RTVSPost2010Prop37
 90
       50
102
RTVSPost2010PropOp37
 70
     1
102
RTVSPost2010Prop38
140
0.0
102
RTVSPost2010PropOp38
 70
     1
102
RTVSPost2010Prop39
140
1.0
102
RTVSPost2010PropOp39
 70
     1
102
RTVSPost2010Prop40
 90
        0
102
RTVSPost2010PropOp40
 70
     1
102
RTVSPost2010Prop41ColorIndex
 90
       18
102
RTVSPost2010Prop41ColorRGB
 90
        0
102
RTVSPost2010PropOp41
 70
     1
102
RTVSPost2010Prop42
 90
       50
102
RTVSPost2010PropOp42
 70
     1
102
RTVSPost2010Prop43
 90
        3
102
RTVSPost2010PropOp43
 70
     1
102
RTVSPost2010Prop44ColorIndex
 90
        5
102
RTVSPost2010Prop44ColorRGB
 90
      255
102
RTVSPost2010PropOp44
 70
     1
102
RTVSPost2010Prop45
280
     0
102
RTVSPost2010PropOp45
 70
     1
102
RTVSPost2010Prop46
 90
       50
102
RTVSPost2010PropOp46
 70
     1
102
RTVSPost2010Prop47
 90
       50
102
RTVSPost2010PropOp47
 70
     1
102
RTVSPost2010Prop48
 90
       50
102
RTVSPost2010PropOp48
 70
     1
102
RTVSPost2010Prop49
280
     0
102
RTVSPost2010PropOp49
 70
     1
102
RTVSPost2010Prop50
 90
       50
102
RTVSPost2010PropOp50
 70
     1
102
RTVSPost2010Prop51ColorIndex
 90
      256
102
RTVSPost2010Prop51ColorRGB
 90
-16777216
102
RTVSPost2010PropOp51
 70
     0
102
RTVSPost2010Prop52
140
1.0
102
RTVSPost2010PropOp52
 70
     0
102
RTVSPost2010Prop53
 90
        2
102
RTVSPost2010PropOp53
 70
     1
102
RTVSPost2010Prop54
  1
strokes_ogs.tif
102
RTVSPost2010PropOp54
 70
     1
102
RTVSPost2010Prop55
280
     0
102
RTVSPost2010PropOp55
 70
     1
102
RTVSPost2010Prop56
140
1.0
102
RTVSPost2010PropOp56
 70
     1
102
RTVSPost2010Prop57
140
1.0
102
RTVSPost2010PropOp57
 70
     1
102
RTVSPropertyOp0
 70
     0
102
RTVSPropertyOp1
 70
     0
102
RTVSPropertyOp2
 70
     0
102
RTVSPropertyOp3
 70
     0
102
RTVSPropertyOp4
 70
     0
102
RTVSPropertyOp5
 70
     0
102
RTVSPropertyOp6
 70
     0
102
RTVSPropertyOp7
 70
     0
102
RTVSPropertyOp8
 70
     0
102
RTVSPropertyOp9
 70
     0
102
RTVSPropertyOp10
 70
     0
102
RTVSPropertyOp11
 70
     0
102
RTVSPropertyOp12
 70
     0
102
RTVSPropertyOp13
 70
     0
102
RTVSPropertyOp14
 70
     2
102
RTVSPropertyOp15
 70
     0
102
RTVSPropertyOp16
 70
     0
102
RTVSPropertyOp17
 70
     0
102
RTVSPropertyOp18
 70
     0
102
RTVSPropertyOp19
 70
     0
102
RTVSPropertyOp20
 70
     0
102
RTVSPropertyOp21
 70
     0
102
RTVSPropertyOp22
 70
     0
102
RTVSPropertyOp23
 70
     0
102
RTVSPropertyOp24
 70
     0
102
RTVSPropertyOp25
 70
     0
102
RTVSPropertyOp26
 70
     0
102
RTVSPropertyOp27
 70
     0
102
RTVSPropertyOp28
 70
     1
102
RTVSPropertyOp29
 70
     1
102
RTVSPropertyOp30
 70
     1
102
RTVSPropertyOp31
 70
     1
102
RTVSPropertyOp32
 70
     1
102
RTVSPropertyOp33
 70
     1
102
RTVSPropertyOp34
 70
     1
102
RTVSPropertyOp35
 70
     1
102
RTVSPropertyOp36
 70
     1
102
RTVSPropertyOp37
 70
     1
102
RTVSPropertyOp38
 70
     1
102
RTVSPropertyOp39
 70
     1
102
RTVSPropertyOp40
 70
     1
102
RTVSPropertyOp41
 70
     1
102
RTVSPropertyOp42
 70
     1
102
RTVSPropertyOp43
 70
     1
102
RTVSPropertyOp44
 70
     1
102
RTVSPropertyOp45
 70
     1
102
RTVSPropertyOp46
 70
     1
102
RTVSPropertyOp47
 70
     1
102
RTVSPropertyOp48
 70
     1
102
RTVSPropertyOp49
 70
     1
102
RTVSPropertyOp50
 70
     1
102
RTVSPropertyOp51
 70
     0
102
RTVSPropertyOp52
 70
     0
102
RTVSPropertyOp53
 70
     1
102
RTVSPropertyOp54
 70
     1
102
RTVSPropertyOp55
 70
     1
102
RTVSPropertyOp56
 70
     1
102
RTVSPropertyOp57
 70
     1
102
RTVSPropertyOp58
 70
     1
102
RTVSPropertyOp59
 70
     1
102
RTVSPropertyOp60
 70
     1
102
RTVSPropertyOp61
 70
     1
102
RTVSPropertyOp62
 70
     1
  0
XRECORD
  5
85CD
102
{ACAD_REACTORS
330
85CC
102
}
330
85CC
100
AcDbXrecord
280
     1
102
RTVSPost2010Prop28
280
     0
102
RTVSPost2010PropOp28
 70
     1
102
RTVSPost2010Prop29
280
     1
102
RTVSPost2010PropOp29
 70
     1
102
RTVSPost2010Prop30
280
     1
102
RTVSPost2010PropOp30
 70
     1
102
RTVSPost2010Prop31
280
     0
102
RTVSPost2010PropOp31
 70
     1
102
RTVSPost2010Prop32
280
     0
102
RTVSPost2010PropOp32
 70
     1
102
RTVSPost2010Prop33
280
     0
102
RTVSPost2010PropOp33
 70
     1
102
RTVSPost2010Prop34
280
     0
102
RTVSPost2010PropOp34
 70
     1
102
RTVSPost2010Prop35
280
     0
102
RTVSPost2010PropOp35
 70
     1
102
RTVSPost2010Prop36
280
     0
102
RTVSPost2010PropOp36
 70
     1
102
RTVSPost2010Prop37
 90
       50
102
RTVSPost2010PropOp37
 70
     1
102
RTVSPost2010Prop38
140
0.0
102
RTVSPost2010PropOp38
 70
     1
102
RTVSPost2010Prop39
140
1.0
102
RTVSPost2010PropOp39
 70
     1
102
RTVSPost2010Prop40
 90
        0
102
RTVSPost2010PropOp40
 70
     1
102
RTVSPost2010Prop41ColorIndex
 90
       18
102
RTVSPost2010Prop41ColorRGB
 90
        0
102
RTVSPost2010PropOp41
 70
     1
102
RTVSPost2010Prop42
 90
       50
102
RTVSPost2010PropOp42
 70
     1
102
RTVSPost2010Prop43
 90
        3
102
RTVSPost2010PropOp43
 70
     1
102
RTVSPost2010Prop44ColorIndex
 90
        5
102
RTVSPost2010Prop44ColorRGB
 90
      255
102
RTVSPost2010PropOp44
 70
     1
102
RTVSPost2010Prop45
280
     0
102
RTVSPost2010PropOp45
 70
     1
102
RTVSPost2010Prop46
 90
       50
102
RTVSPost2010PropOp46
 70
     1
102
RTVSPost2010Prop47
 90
       50
102
RTVSPost2010PropOp47
 70
     1
102
RTVSPost2010Prop48
 90
       50
102
RTVSPost2010PropOp48
 70
     1
102
RTVSPost2010Prop49
280
     0
102
RTVSPost2010PropOp49
 70
     1
102
RTVSPost2010Prop50
 90
       50
102
RTVSPost2010PropOp50
 70
     1
102
RTVSPost2010Prop51ColorIndex
 90
      256
102
RTVSPost2010Prop51ColorRGB
 90
-16777216
102
RTVSPost2010PropOp51
 70
     0
102
RTVSPost2010Prop52
140
1.0
102
RTVSPost2010PropOp52
 70
     0
102
RTVSPost2010Prop53
 90
        2
102
RTVSPost2010PropOp53
 70
     1
102
RTVSPost2010Prop54
  1
strokes_ogs.tif
102
RTVSPost2010PropOp54
 70
     1
102
RTVSPost2010Prop55
280
     0
102
RTVSPost2010PropOp55
 70
     1
102
RTVSPost2010Prop56
140
1.0
102
RTVSPost2010PropOp56
 70
     1
102
RTVSPost2010Prop57
140
1.0
102
RTVSPost2010PropOp57
 70
     1
102
RTVSPropertyOp0
 70
     1
102
RTVSPropertyOp1
 70
     1
102
RTVSPropertyOp2
 70
     1
102
RTVSPropertyOp3
 70
     1
102
RTVSPropertyOp4
 70
     1
102
RTVSPropertyOp5
 70
     1
102
RTVSPropertyOp6
 70
     1
102
RTVSPropertyOp7
 70
     1
102
RTVSPropertyOp8
 70
     1
102
RTVSPropertyOp9
 70
     1
102
RTVSPropertyOp10
 70
     1
102
RTVSPropertyOp11
 70
     1
102
RTVSPropertyOp12
 70
     1
102
RTVSPropertyOp13
 70
     1
102
RTVSPropertyOp14
 70
     1
102
RTVSPropertyOp15
 70
     1
102
RTVSPropertyOp16
 70
     1
102
RTVSPropertyOp17
 70
     1
102
RTVSPropertyOp18
 70
     1
102
RTVSPropertyOp19
 70
     1
102
RTVSPropertyOp20
 70
     1
102
RTVSPropertyOp21
 70
     1
102
RTVSPropertyOp22
 70
     1
102
RTVSPropertyOp23
 70
     1
102
RTVSPropertyOp24
 70
     1
102
RTVSPropertyOp25
 70
     1
102
RTVSPropertyOp26
 70
     1
102
RTVSPropertyOp27
 70
     1
102
RTVSPropertyOp28
 70
     1
102
RTVSPropertyOp29
 70
     1
102
RTVSPropertyOp30
 70
     1
102
RTVSPropertyOp31
 70
     1
102
RTVSPropertyOp32
 70
     1
102
RTVSPropertyOp33
 70
     1
102
RTVSPropertyOp34
 70
     1
102
RTVSPropertyOp35
 70
     1
102
RTVSPropertyOp36
 70
     1
102
RTVSPropertyOp37
 70
     1
102
RTVSPropertyOp38
 70
     1
102
RTVSPropertyOp39
 70
     1
102
RTVSPropertyOp40
 70
     1
102
RTVSPropertyOp41
 70
     1
102
RTVSPropertyOp42
 70
     1
102
RTVSPropertyOp43
 70
     1
102
RTVSPropertyOp44
 70
     1
102
RTVSPropertyOp45
 70
     1
102
RTVSPropertyOp46
 70
     1
102
RTVSPropertyOp47
 70
     1
102
RTVSPropertyOp48
 70
     1
102
RTVSPropertyOp49
 70
     1
102
RTVSPropertyOp50
 70
     1
102
RTVSPropertyOp51
 70
     0
102
RTVSPropertyOp52
 70
     0
102
RTVSPropertyOp53
 70
     1
102
RTVSPropertyOp54
 70
     1
102
RTVSPropertyOp55
 70
     1
102
RTVSPropertyOp56
 70
     1
102
RTVSPropertyOp57
 70
     1
102
RTVSPropertyOp58
 70
     1
102
RTVSPropertyOp59
 70
     1
102
RTVSPropertyOp60
 70
     1
102
RTVSPropertyOp61
 70
     1
102
RTVSPropertyOp62
 70
     1
  0
XRECORD
  5
85D5
102
{ACAD_REACTORS
330
85D4
102
}
330
85D4
100
AcDbXrecord
280
     1
102
RTVSPost2010Prop28
280
     0
102
RTVSPost2010PropOp28
 70
     1
102
RTVSPost2010Prop29
280
     1
102
RTVSPost2010PropOp29
 70
     1
102
RTVSPost2010Prop30
280
     1
102
RTVSPost2010PropOp30
 70
     1
102
RTVSPost2010Prop31
280
     0
102
RTVSPost2010PropOp31
 70
     1
102
RTVSPost2010Prop32
280
     0
102
RTVSPost2010PropOp32
 70
     1
102
RTVSPost2010Prop33
280
     0
102
RTVSPost2010PropOp33
 70
     1
102
RTVSPost2010Prop34
280
     0
102
RTVSPost2010PropOp34
 70
     1
102
RTVSPost2010Prop35
280
     0
102
RTVSPost2010PropOp35
 70
     1
102
RTVSPost2010Prop36
280
     0
102
RTVSPost2010PropOp36
 70
     1
102
RTVSPost2010Prop37
 90
       50
102
RTVSPost2010PropOp37
 70
     1
102
RTVSPost2010Prop38
140
0.0
102
RTVSPost2010PropOp38
 70
     1
102
RTVSPost2010Prop39
140
1.0
102
RTVSPost2010PropOp39
 70
     1
102
RTVSPost2010Prop40
 90
        0
102
RTVSPost2010PropOp40
 70
     1
102
RTVSPost2010Prop41ColorIndex
 90
       18
102
RTVSPost2010Prop41ColorRGB
 90
        0
102
RTVSPost2010PropOp41
 70
     1
102
RTVSPost2010Prop42
 90
       50
102
RTVSPost2010PropOp42
 70
     1
102
RTVSPost2010Prop43
 90
        3
102
RTVSPost2010PropOp43
 70
     1
102
RTVSPost2010Prop44ColorIndex
 90
        5
102
RTVSPost2010Prop44ColorRGB
 90
      255
102
RTVSPost2010PropOp44
 70
     1
102
RTVSPost2010Prop45
280
     0
102
RTVSPost2010PropOp45
 70
     1
102
RTVSPost2010Prop46
 90
       50
102
RTVSPost2010PropOp46
 70
     1
102
RTVSPost2010Prop47
 90
       50
102
RTVSPost2010PropOp47
 70
     1
102
RTVSPost2010Prop48
 90
       50
102
RTVSPost2010PropOp48
 70
     1
102
RTVSPost2010Prop49
280
     0
102
RTVSPost2010PropOp49
 70
     1
102
RTVSPost2010Prop50
 90
       50
102
RTVSPost2010PropOp50
 70
     1
102
RTVSPost2010Prop51ColorIndex
 90
      256
102
RTVSPost2010Prop51ColorRGB
 90
-16777216
102
RTVSPost2010PropOp51
 70
     0
102
RTVSPost2010Prop52
140
1.0
102
RTVSPost2010PropOp52
 70
     0
102
RTVSPost2010Prop53
 90
        2
102
RTVSPost2010PropOp53
 70
     1
102
RTVSPost2010Prop54
  1
strokes_ogs.tif
102
RTVSPost2010PropOp54
 70
     1
102
RTVSPost2010Prop55
280
     0
102
RTVSPost2010PropOp55
 70
     1
102
RTVSPost2010Prop56
140
1.0
102
RTVSPost2010PropOp56
 70
     1
102
RTVSPost2010Prop57
140
1.0
102
RTVSPost2010PropOp57
 70
     1
102
RTVSPropertyOp0
 70
     0
102
RTVSPropertyOp1
 70
     0
102
RTVSPropertyOp2
 70
     0
102
RTVSPropertyOp3
 70
     0
102
RTVSPropertyOp4
 70
     0
102
RTVSPropertyOp5
 70
     0
102
RTVSPropertyOp6
 70
     0
102
RTVSPropertyOp7
 70
     0
102
RTVSPropertyOp8
 70
     0
102
RTVSPropertyOp9
 70
     0
102
RTVSPropertyOp10
 70
     0
102
RTVSPropertyOp11
 70
     0
102
RTVSPropertyOp12
 70
     0
102
RTVSPropertyOp13
 70
     0
102
RTVSPropertyOp14
 70
     2
102
RTVSPropertyOp15
 70
     0
102
RTVSPropertyOp16
 70
     0
102
RTVSPropertyOp17
 70
     0
102
RTVSPropertyOp18
 70
     0
102
RTVSPropertyOp19
 70
     0
102
RTVSPropertyOp20
 70
     0
102
RTVSPropertyOp21
 70
     0
102
RTVSPropertyOp22
 70
     0
102
RTVSPropertyOp23
 70
     0
102
RTVSPropertyOp24
 70
     0
102
RTVSPropertyOp25
 70
     0
102
RTVSPropertyOp26
 70
     0
102
RTVSPropertyOp27
 70
     0
102
RTVSPropertyOp28
 70
     1
102
RTVSPropertyOp29
 70
     1
102
RTVSPropertyOp30
 70
     1
102
RTVSPropertyOp31
 70
     1
102
RTVSPropertyOp32
 70
     1
102
RTVSPropertyOp33
 70
     1
102
RTVSPropertyOp34
 70
     1
102
RTVSPropertyOp35
 70
     1
102
RTVSPropertyOp36
 70
     1
102
RTVSPropertyOp37
 70
     1
102
RTVSPropertyOp38
 70
     1
102
RTVSPropertyOp39
 70
     1
102
RTVSPropertyOp40
 70
     1
102
RTVSPropertyOp41
 70
     1
102
RTVSPropertyOp42
 70
     1
102
RTVSPropertyOp43
 70
     1
102
RTVSPropertyOp44
 70
     1
102
RTVSPropertyOp45
 70
     1
102
RTVSPropertyOp46
 70
     1
102
RTVSPropertyOp47
 70
     1
102
RTVSPropertyOp48
 70
     1
102
RTVSPropertyOp49
 70
     1
102
RTVSPropertyOp50
 70
     1
102
RTVSPropertyOp51
 70
     0
102
RTVSPropertyOp52
 70
     0
102
RTVSPropertyOp53
 70
     1
102
RTVSPropertyOp54
 70
     1
102
RTVSPropertyOp55
 70
     1
102
RTVSPropertyOp56
 70
     1
102
RTVSPropertyOp57
 70
     1
102
RTVSPropertyOp58
 70
     1
102
RTVSPropertyOp59
 70
     1
102
RTVSPropertyOp60
 70
     1
102
RTVSPropertyOp61
 70
     1
102
RTVSPropertyOp62
 70
     1
  0
XRECORD
  5
85C3
102
{ACAD_REACTORS
330
85C2
102
}
330
85C2
100
AcDbXrecord
280
     1
102
RTVSPost2010Prop28
280
     0
102
RTVSPost2010PropOp28
 70
     1
102
RTVSPost2010Prop29
280
     1
102
RTVSPost2010PropOp29
 70
     1
102
RTVSPost2010Prop30
280
     1
102
RTVSPost2010PropOp30
 70
     1
102
RTVSPost2010Prop31
280
     0
102
RTVSPost2010PropOp31
 70
     1
102
RTVSPost2010Prop32
280
     0
102
RTVSPost2010PropOp32
 70
     1
102
RTVSPost2010Prop33
280
     0
102
RTVSPost2010PropOp33
 70
     1
102
RTVSPost2010Prop34
280
     0
102
RTVSPost2010PropOp34
 70
     1
102
RTVSPost2010Prop35
280
     0
102
RTVSPost2010PropOp35
 70
     1
102
RTVSPost2010Prop36
280
     0
102
RTVSPost2010PropOp36
 70
     1
102
RTVSPost2010Prop37
 90
       50
102
RTVSPost2010PropOp37
 70
     1
102
RTVSPost2010Prop38
140
0.0
102
RTVSPost2010PropOp38
 70
     1
102
RTVSPost2010Prop39
140
1.0
102
RTVSPost2010PropOp39
 70
     1
102
RTVSPost2010Prop40
 90
        0
102
RTVSPost2010PropOp40
 70
     1
102
RTVSPost2010Prop41ColorIndex
 90
       18
102
RTVSPost2010Prop41ColorRGB
 90
        0
102
RTVSPost2010PropOp41
 70
     1
102
RTVSPost2010Prop42
 90
       50
102
RTVSPost2010PropOp42
 70
     1
102
RTVSPost2010Prop43
 90
        3
102
RTVSPost2010PropOp43
 70
     1
102
RTVSPost2010Prop44ColorIndex
 90
        5
102
RTVSPost2010Prop44ColorRGB
 90
      255
102
RTVSPost2010PropOp44
 70
     1
102
RTVSPost2010Prop45
280
     0
102
RTVSPost2010PropOp45
 70
     1
102
RTVSPost2010Prop46
 90
       50
102
RTVSPost2010PropOp46
 70
     1
102
RTVSPost2010Prop47
 90
       50
102
RTVSPost2010PropOp47
 70
     1
102
RTVSPost2010Prop48
 90
       50
102
RTVSPost2010PropOp48
 70
     1
102
RTVSPost2010Prop49
280
     0
102
RTVSPost2010PropOp49
 70
     1
102
RTVSPost2010Prop50
 90
       50
102
RTVSPost2010PropOp50
 70
     1
102
RTVSPost2010Prop51ColorIndex
 90
      256
102
RTVSPost2010Prop51ColorRGB
 90
-16777216
102
RTVSPost2010PropOp51
 70
     0
102
RTVSPost2010Prop52
140
1.0
102
RTVSPost2010PropOp52
 70
     0
102
RTVSPost2010Prop53
 90
        2
102
RTVSPost2010PropOp53
 70
     1
102
RTVSPost2010Prop54
  1
strokes_ogs.tif
102
RTVSPost2010PropOp54
 70
     1
102
RTVSPost2010Prop55
280
     0
102
RTVSPost2010PropOp55
 70
     1
102
RTVSPost2010Prop56
140
1.0
102
RTVSPost2010PropOp56
 70
     1
102
RTVSPost2010Prop57
140
1.0
102
RTVSPost2010PropOp57
 70
     1
102
RTVSPropertyOp0
 70
     1
102
RTVSPropertyOp1
 70
     1
102
RTVSPropertyOp2
 70
     1
102
RTVSPropertyOp3
 70
     1
102
RTVSPropertyOp4
 70
     1
102
RTVSPropertyOp5
 70
     1
102
RTVSPropertyOp6
 70
     1
102
RTVSPropertyOp7
 70
     1
102
RTVSPropertyOp8
 70
     1
102
RTVSPropertyOp9
 70
     1
102
RTVSPropertyOp10
 70
     1
102
RTVSPropertyOp11
 70
     1
102
RTVSPropertyOp12
 70
     1
102
RTVSPropertyOp13
 70
     1
102
RTVSPropertyOp14
 70
     1
102
RTVSPropertyOp15
 70
     1
102
RTVSPropertyOp16
 70
     1
102
RTVSPropertyOp17
 70
     1
102
RTVSPropertyOp18
 70
     1
102
RTVSPropertyOp19
 70
     1
102
RTVSPropertyOp20
 70
     1
102
RTVSPropertyOp21
 70
     1
102
RTVSPropertyOp22
 70
     1
102
RTVSPropertyOp23
 70
     1
102
RTVSPropertyOp24
 70
     1
102
RTVSPropertyOp25
 70
     1
102
RTVSPropertyOp26
 70
     1
102
RTVSPropertyOp27
 70
     1
102
RTVSPropertyOp28
 70
     1
102
RTVSPropertyOp29
 70
     1
102
RTVSPropertyOp30
 70
     1
102
RTVSPropertyOp31
 70
     1
102
RTVSPropertyOp32
 70
     1
102
RTVSPropertyOp33
 70
     1
102
RTVSPropertyOp34
 70
     1
102
RTVSPropertyOp35
 70
     1
102
RTVSPropertyOp36
 70
     1
102
RTVSPropertyOp37
 70
     1
102
RTVSPropertyOp38
 70
     1
102
RTVSPropertyOp39
 70
     1
102
RTVSPropertyOp40
 70
     1
102
RTVSPropertyOp41
 70
     1
102
RTVSPropertyOp42
 70
     1
102
RTVSPropertyOp43
 70
     1
102
RTVSPropertyOp44
 70
     1
102
RTVSPropertyOp45
 70
     1
102
RTVSPropertyOp46
 70
     1
102
RTVSPropertyOp47
 70
     1
102
RTVSPropertyOp48
 70
     1
102
RTVSPropertyOp49
 70
     1
102
RTVSPropertyOp50
 70
     1
102
RTVSPropertyOp51
 70
     0
102
RTVSPropertyOp52
 70
     0
102
RTVSPropertyOp53
 70
     1
102
RTVSPropertyOp54
 70
     1
102
RTVSPropertyOp55
 70
     1
102
RTVSPropertyOp56
 70
     1
102
RTVSPropertyOp57
 70
     1
102
RTVSPropertyOp58
 70
     1
102
RTVSPropertyOp59
 70
     1
102
RTVSPropertyOp60
 70
     1
102
RTVSPropertyOp61
 70
     1
102
RTVSPropertyOp62
 70
     1
  0
XRECORD
  5
85E1
102
{ACAD_REACTORS
330
85E0
102
}
330
85E0
100
AcDbXrecord
280
     1
102
RTVSPost2010Prop28
280
     0
102
RTVSPost2010PropOp28
 70
     1
102
RTVSPost2010Prop29
280
     1
102
RTVSPost2010PropOp29
 70
     1
102
RTVSPost2010Prop30
280
     1
102
RTVSPost2010PropOp30
 70
     1
102
RTVSPost2010Prop31
280
     0
102
RTVSPost2010PropOp31
 70
     1
102
RTVSPost2010Prop32
280
     0
102
RTVSPost2010PropOp32
 70
     1
102
RTVSPost2010Prop33
280
     0
102
RTVSPost2010PropOp33
 70
     1
102
RTVSPost2010Prop34
280
     0
102
RTVSPost2010PropOp34
 70
     1
102
RTVSPost2010Prop35
280
     0
102
RTVSPost2010PropOp35
 70
     1
102
RTVSPost2010Prop36
280
     0
102
RTVSPost2010PropOp36
 70
     1
102
RTVSPost2010Prop37
 90
       50
102
RTVSPost2010PropOp37
 70
     1
102
RTVSPost2010Prop38
140
0.0
102
RTVSPost2010PropOp38
 70
     1
102
RTVSPost2010Prop39
140
1.0
102
RTVSPost2010PropOp39
 70
     1
102
RTVSPost2010Prop40
 90
        0
102
RTVSPost2010PropOp40
 70
     1
102
RTVSPost2010Prop41ColorIndex
 90
       18
102
RTVSPost2010Prop41ColorRGB
 90
        0
102
RTVSPost2010PropOp41
 70
     1
102
RTVSPost2010Prop42
 90
       50
102
RTVSPost2010PropOp42
 70
     1
102
RTVSPost2010Prop43
 90
        3
102
RTVSPost2010PropOp43
 70
     1
102
RTVSPost2010Prop44ColorIndex
 90
        5
102
RTVSPost2010Prop44ColorRGB
 90
      255
102
RTVSPost2010PropOp44
 70
     1
102
RTVSPost2010Prop45
280
     0
102
RTVSPost2010PropOp45
 70
     1
102
RTVSPost2010Prop46
 90
       50
102
RTVSPost2010PropOp46
 70
     1
102
RTVSPost2010Prop47
 90
       50
102
RTVSPost2010PropOp47
 70
     1
102
RTVSPost2010Prop48
 90
       50
102
RTVSPost2010PropOp48
 70
     1
102
RTVSPost2010Prop49
280
     0
102
RTVSPost2010PropOp49
 70
     1
102
RTVSPost2010Prop50
 90
       50
102
RTVSPost2010PropOp50
 70
     1
102
RTVSPost2010Prop51ColorIndex
 90
      256
102
RTVSPost2010Prop51ColorRGB
 90
-16777216
102
RTVSPost2010PropOp51
 70
     0
102
RTVSPost2010Prop52
140
1.0
102
RTVSPost2010PropOp52
 70
     0
102
RTVSPost2010Prop53
 90
        2
102
RTVSPost2010PropOp53
 70
     1
102
RTVSPost2010Prop54
  1
strokes_ogs.tif
102
RTVSPost2010PropOp54
 70
     1
102
RTVSPost2010Prop55
280
     0
102
RTVSPost2010PropOp55
 70
     1
102
RTVSPost2010Prop56
140
1.0
102
RTVSPost2010PropOp56
 70
     1
102
RTVSPost2010Prop57
140
1.0
102
RTVSPost2010PropOp57
 70
     1
102
RTVSPropertyOp0
 70
     1
102
RTVSPropertyOp1
 70
     1
102
RTVSPropertyOp2
 70
     1
102
RTVSPropertyOp3
 70
     1
102
RTVSPropertyOp4
 70
     1
102
RTVSPropertyOp5
 70
     1
102
RTVSPropertyOp6
 70
     1
102
RTVSPropertyOp7
 70
     1
102
RTVSPropertyOp8
 70
     1
102
RTVSPropertyOp9
 70
     1
102
RTVSPropertyOp10
 70
     1
102
RTVSPropertyOp11
 70
     1
102
RTVSPropertyOp12
 70
     1
102
RTVSPropertyOp13
 70
     1
102
RTVSPropertyOp14
 70
     1
102
RTVSPropertyOp15
 70
     1
102
RTVSPropertyOp16
 70
     1
102
RTVSPropertyOp17
 70
     1
102
RTVSPropertyOp18
 70
     1
102
RTVSPropertyOp19
 70
     1
102
RTVSPropertyOp20
 70
     1
102
RTVSPropertyOp21
 70
     1
102
RTVSPropertyOp22
 70
     1
102
RTVSPropertyOp23
 70
     1
102
RTVSPropertyOp24
 70
     1
102
RTVSPropertyOp25
 70
     1
102
RTVSPropertyOp26
 70
     1
102
RTVSPropertyOp27
 70
     1
102
RTVSPropertyOp28
 70
     1
102
RTVSPropertyOp29
 70
     1
102
RTVSPropertyOp30
 70
     1
102
RTVSPropertyOp31
 70
     1
102
RTVSPropertyOp32
 70
     1
102
RTVSPropertyOp33
 70
     1
102
RTVSPropertyOp34
 70
     1
102
RTVSPropertyOp35
 70
     1
102
RTVSPropertyOp36
 70
     1
102
RTVSPropertyOp37
 70
     1
102
RTVSPropertyOp38
 70
     1
102
RTVSPropertyOp39
 70
     1
102
RTVSPropertyOp40
 70
     1
102
RTVSPropertyOp41
 70
     1
102
RTVSPropertyOp42
 70
     1
102
RTVSPropertyOp43
 70
     1
102
RTVSPropertyOp44
 70
     1
102
RTVSPropertyOp45
 70
     1
102
RTVSPropertyOp46
 70
     1
102
RTVSPropertyOp47
 70
     1
102
RTVSPropertyOp48
 70
     1
102
RTVSPropertyOp49
 70
     1
102
RTVSPropertyOp50
 70
     1
102
RTVSPropertyOp51
 70
     0
102
RTVSPropertyOp52
 70
     0
102
RTVSPropertyOp53
 70
     1
102
RTVSPropertyOp54
 70
     1
102
RTVSPropertyOp55
 70
     1
102
RTVSPropertyOp56
 70
     1
102
RTVSPropertyOp57
 70
     1
102
RTVSPropertyOp58
 70
     1
102
RTVSPropertyOp59
 70
     1
102
RTVSPropertyOp60
 70
     1
102
RTVSPropertyOp61
 70
     1
102
RTVSPropertyOp62
 70
     1
  0
XRECORD
  5
85DF
102
{ACAD_REACTORS
330
85DE
102
}
330
85DE
100
AcDbXrecord
280
     1
102
RTVSPost2010Prop28
280
     0
102
RTVSPost2010PropOp28
 70
     1
102
RTVSPost2010Prop29
280
     1
102
RTVSPost2010PropOp29
 70
     1
102
RTVSPost2010Prop30
280
     1
102
RTVSPost2010PropOp30
 70
     1
102
RTVSPost2010Prop31
280
     0
102
RTVSPost2010PropOp31
 70
     1
102
RTVSPost2010Prop32
280
     0
102
RTVSPost2010PropOp32
 70
     1
102
RTVSPost2010Prop33
280
     0
102
RTVSPost2010PropOp33
 70
     1
102
RTVSPost2010Prop34
280
     0
102
RTVSPost2010PropOp34
 70
     1
102
RTVSPost2010Prop35
280
     0
102
RTVSPost2010PropOp35
 70
     1
102
RTVSPost2010Prop36
280
     0
102
RTVSPost2010PropOp36
 70
     1
102
RTVSPost2010Prop37
 90
       50
102
RTVSPost2010PropOp37
 70
     1
102
RTVSPost2010Prop38
140
0.0
102
RTVSPost2010PropOp38
 70
     1
102
RTVSPost2010Prop39
140
1.0
102
RTVSPost2010PropOp39
 70
     1
102
RTVSPost2010Prop40
 90
        0
102
RTVSPost2010PropOp40
 70
     1
102
RTVSPost2010Prop41ColorIndex
 90
       18
102
RTVSPost2010Prop41ColorRGB
 90
        0
102
RTVSPost2010PropOp41
 70
     1
102
RTVSPost2010Prop42
 90
       50
102
RTVSPost2010PropOp42
 70
     1
102
RTVSPost2010Prop43
 90
        3
102
RTVSPost2010PropOp43
 70
     1
102
RTVSPost2010Prop44ColorIndex
 90
        5
102
RTVSPost2010Prop44ColorRGB
 90
      255
102
RTVSPost2010PropOp44
 70
     1
102
RTVSPost2010Prop45
280
     0
102
RTVSPost2010PropOp45
 70
     1
102
RTVSPost2010Prop46
 90
       50
102
RTVSPost2010PropOp46
 70
     1
102
RTVSPost2010Prop47
 90
       50
102
RTVSPost2010PropOp47
 70
     1
102
RTVSPost2010Prop48
 90
       50
102
RTVSPost2010PropOp48
 70
     1
102
RTVSPost2010Prop49
280
     0
102
RTVSPost2010PropOp49
 70
     1
102
RTVSPost2010Prop50
 90
       50
102
RTVSPost2010PropOp50
 70
     1
102
RTVSPost2010Prop51ColorIndex
 90
      256
102
RTVSPost2010Prop51ColorRGB
 90
-16777216
102
RTVSPost2010PropOp51
 70
     0
102
RTVSPost2010Prop52
140
1.0
102
RTVSPost2010PropOp52
 70
     0
102
RTVSPost2010Prop53
 90
        2
102
RTVSPost2010PropOp53
 70
     1
102
RTVSPost2010Prop54
  1
strokes_ogs.tif
102
RTVSPost2010PropOp54
 70
     1
102
RTVSPost2010Prop55
280
     0
102
RTVSPost2010PropOp55
 70
     1
102
RTVSPost2010Prop56
140
1.0
102
RTVSPost2010PropOp56
 70
     1
102
RTVSPost2010Prop57
140
1.0
102
RTVSPost2010PropOp57
 70
     1
102
RTVSPropertyOp0
 70
     1
102
RTVSPropertyOp1
 70
     1
102
RTVSPropertyOp2
 70
     1
102
RTVSPropertyOp3
 70
     1
102
RTVSPropertyOp4
 70
     1
102
RTVSPropertyOp5
 70
     1
102
RTVSPropertyOp6
 70
     1
102
RTVSPropertyOp7
 70
     1
102
RTVSPropertyOp8
 70
     1
102
RTVSPropertyOp9
 70
     1
102
RTVSPropertyOp10
 70
     1
102
RTVSPropertyOp11
 70
     1
102
RTVSPropertyOp12
 70
     1
102
RTVSPropertyOp13
 70
     1
102
RTVSPropertyOp14
 70
     1
102
RTVSPropertyOp15
 70
     1
102
RTVSPropertyOp16
 70
     1
102
RTVSPropertyOp17
 70
     1
102
RTVSPropertyOp18
 70
     1
102
RTVSPropertyOp19
 70
     1
102
RTVSPropertyOp20
 70
     1
102
RTVSPropertyOp21
 70
     1
102
RTVSPropertyOp22
 70
     1
102
RTVSPropertyOp23
 70
     1
102
RTVSPropertyOp24
 70
     1
102
RTVSPropertyOp25
 70
     1
102
RTVSPropertyOp26
 70
     1
102
RTVSPropertyOp27
 70
     1
102
RTVSPropertyOp28
 70
     1
102
RTVSPropertyOp29
 70
     1
102
RTVSPropertyOp30
 70
     1
102
RTVSPropertyOp31
 70
     1
102
RTVSPropertyOp32
 70
     1
102
RTVSPropertyOp33
 70
     1
102
RTVSPropertyOp34
 70
     1
102
RTVSPropertyOp35
 70
     1
102
RTVSPropertyOp36
 70
     1
102
RTVSPropertyOp37
 70
     1
102
RTVSPropertyOp38
 70
     1
102
RTVSPropertyOp39
 70
     1
102
RTVSPropertyOp40
 70
     1
102
RTVSPropertyOp41
 70
     1
102
RTVSPropertyOp42
 70
     1
102
RTVSPropertyOp43
 70
     1
102
RTVSPropertyOp44
 70
     1
102
RTVSPropertyOp45
 70
     1
102
RTVSPropertyOp46
 70
     1
102
RTVSPropertyOp47
 70
     1
102
RTVSPropertyOp48
 70
     1
102
RTVSPropertyOp49
 70
     1
102
RTVSPropertyOp50
 70
     1
102
RTVSPropertyOp51
 70
     0
102
RTVSPropertyOp52
 70
     0
102
RTVSPropertyOp53
 70
     1
102
RTVSPropertyOp54
 70
     1
102
RTVSPropertyOp55
 70
     1
102
RTVSPropertyOp56
 70
     1
102
RTVSPropertyOp57
 70
     1
102
RTVSPropertyOp58
 70
     1
102
RTVSPropertyOp59
 70
     1
102
RTVSPropertyOp60
 70
     1
102
RTVSPropertyOp61
 70
     1
102
RTVSPropertyOp62
 70
     1
  0
XRECORD
  5
85D9
102
{ACAD_REACTORS
330
85D8
102
}
330
85D8
100
AcDbXrecord
280
     1
102
RTVSPost2010Prop28
280
     0
102
RTVSPost2010PropOp28
 70
     1
102
RTVSPost2010Prop29
280
     1
102
RTVSPost2010PropOp29
 70
     1
102
RTVSPost2010Prop30
280
     1
102
RTVSPost2010PropOp30
 70
     1
102
RTVSPost2010Prop31
280
     0
102
RTVSPost2010PropOp31
 70
     1
102
RTVSPost2010Prop32
280
     0
102
RTVSPost2010PropOp32
 70
     1
102
RTVSPost2010Prop33
280
     0
102
RTVSPost2010PropOp33
 70
     1
102
RTVSPost2010Prop34
280
     0
102
RTVSPost2010PropOp34
 70
     1
102
RTVSPost2010Prop35
280
     0
102
RTVSPost2010PropOp35
 70
     1
102
RTVSPost2010Prop36
280
     0
102
RTVSPost2010PropOp36
 70
     1
102
RTVSPost2010Prop37
 90
       50
102
RTVSPost2010PropOp37
 70
     1
102
RTVSPost2010Prop38
140
0.0
102
RTVSPost2010PropOp38
 70
     1
102
RTVSPost2010Prop39
140
1.0
102
RTVSPost2010PropOp39
 70
     1
102
RTVSPost2010Prop40
 90
        0
102
RTVSPost2010PropOp40
 70
     1
102
RTVSPost2010Prop41ColorIndex
 90
       18
102
RTVSPost2010Prop41ColorRGB
 90
        0
102
RTVSPost2010PropOp41
 70
     1
102
RTVSPost2010Prop42
 90
       50
102
RTVSPost2010PropOp42
 70
     1
102
RTVSPost2010Prop43
 90
        3
102
RTVSPost2010PropOp43
 70
     1
102
RTVSPost2010Prop44ColorIndex
 90
        5
102
RTVSPost2010Prop44ColorRGB
 90
      255
102
RTVSPost2010PropOp44
 70
     1
102
RTVSPost2010Prop45
280
     0
102
RTVSPost2010PropOp45
 70
     1
102
RTVSPost2010Prop46
 90
       50
102
RTVSPost2010PropOp46
 70
     1
102
RTVSPost2010Prop47
 90
       50
102
RTVSPost2010PropOp47
 70
     1
102
RTVSPost2010Prop48
 90
       50
102
RTVSPost2010PropOp48
 70
     1
102
RTVSPost2010Prop49
280
     0
102
RTVSPost2010PropOp49
 70
     1
102
RTVSPost2010Prop50
 90
       50
102
RTVSPost2010PropOp50
 70
     1
102
RTVSPost2010Prop51ColorIndex
 90
      256
102
RTVSPost2010Prop51ColorRGB
 90
-16777216
102
RTVSPost2010PropOp51
 70
     0
102
RTVSPost2010Prop52
140
1.0
102
RTVSPost2010PropOp52
 70
     0
102
RTVSPost2010Prop53
 90
        2
102
RTVSPost2010PropOp53
 70
     1
102
RTVSPost2010Prop54
  1
strokes_ogs.tif
102
RTVSPost2010PropOp54
 70
     1
102
RTVSPost2010Prop55
280
     0
102
RTVSPost2010PropOp55
 70
     1
102
RTVSPost2010Prop56
140
1.0
102
RTVSPost2010PropOp56
 70
     1
102
RTVSPost2010Prop57
140
1.0
102
RTVSPost2010PropOp57
 70
     1
102
RTVSPropertyOp0
 70
     1
102
RTVSPropertyOp1
 70
     1
102
RTVSPropertyOp2
 70
     1
102
RTVSPropertyOp3
 70
     1
102
RTVSPropertyOp4
 70
     1
102
RTVSPropertyOp5
 70
     1
102
RTVSPropertyOp6
 70
     1
102
RTVSPropertyOp7
 70
     1
102
RTVSPropertyOp8
 70
     1
102
RTVSPropertyOp9
 70
     1
102
RTVSPropertyOp10
 70
     1
102
RTVSPropertyOp11
 70
     1
102
RTVSPropertyOp12
 70
     1
102
RTVSPropertyOp13
 70
     1
102
RTVSPropertyOp14
 70
     1
102
RTVSPropertyOp15
 70
     1
102
RTVSPropertyOp16
 70
     1
102
RTVSPropertyOp17
 70
     1
102
RTVSPropertyOp18
 70
     1
102
RTVSPropertyOp19
 70
     1
102
RTVSPropertyOp20
 70
     1
102
RTVSPropertyOp21
 70
     1
102
RTVSPropertyOp22
 70
     1
102
RTVSPropertyOp23
 70
     1
102
RTVSPropertyOp24
 70
     1
102
RTVSPropertyOp25
 70
     1
102
RTVSPropertyOp26
 70
     1
102
RTVSPropertyOp27
 70
     1
102
RTVSPropertyOp28
 70
     1
102
RTVSPropertyOp29
 70
     1
102
RTVSPropertyOp30
 70
     1
102
RTVSPropertyOp31
 70
     1
102
RTVSPropertyOp32
 70
     1
102
RTVSPropertyOp33
 70
     1
102
RTVSPropertyOp34
 70
     1
102
RTVSPropertyOp35
 70
     1
102
RTVSPropertyOp36
 70
     1
102
RTVSPropertyOp37
 70
     1
102
RTVSPropertyOp38
 70
     1
102
RTVSPropertyOp39
 70
     1
102
RTVSPropertyOp40
 70
     1
102
RTVSPropertyOp41
 70
     1
102
RTVSPropertyOp42
 70
     1
102
RTVSPropertyOp43
 70
     1
102
RTVSPropertyOp44
 70
     1
102
RTVSPropertyOp45
 70
     1
102
RTVSPropertyOp46
 70
     1
102
RTVSPropertyOp47
 70
     1
102
RTVSPropertyOp48
 70
     1
102
RTVSPropertyOp49
 70
     1
102
RTVSPropertyOp50
 70
     1
102
RTVSPropertyOp51
 70
     0
102
RTVSPropertyOp52
 70
     0
102
RTVSPropertyOp53
 70
     1
102
RTVSPropertyOp54
 70
     1
102
RTVSPropertyOp55
 70
     1
102
RTVSPropertyOp56
 70
     1
102
RTVSPropertyOp57
 70
     1
102
RTVSPropertyOp58
 70
     1
102
RTVSPropertyOp59
 70
     1
102
RTVSPropertyOp60
 70
     1
102
RTVSPropertyOp61
 70
     1
102
RTVSPropertyOp62
 70
     1
  0
XRECORD
  5
85DB
102
{ACAD_REACTORS
330
85DA
102
}
330
85DA
100
AcDbXrecord
280
     1
102
RTVSPost2010Prop28
280
     0
102
RTVSPost2010PropOp28
 70
     1
102
RTVSPost2010Prop29
280
     1
102
RTVSPost2010PropOp29
 70
     1
102
RTVSPost2010Prop30
280
     1
102
RTVSPost2010PropOp30
 70
     1
102
RTVSPost2010Prop31
280
     0
102
RTVSPost2010PropOp31
 70
     1
102
RTVSPost2010Prop32
280
     0
102
RTVSPost2010PropOp32
 70
     1
102
RTVSPost2010Prop33
280
     0
102
RTVSPost2010PropOp33
 70
     1
102
RTVSPost2010Prop34
280
     0
102
RTVSPost2010PropOp34
 70
     1
102
RTVSPost2010Prop35
280
     0
102
RTVSPost2010PropOp35
 70
     1
102
RTVSPost2010Prop36
280
     0
102
RTVSPost2010PropOp36
 70
     1
102
RTVSPost2010Prop37
 90
       50
102
RTVSPost2010PropOp37
 70
     1
102
RTVSPost2010Prop38
140
0.0
102
RTVSPost2010PropOp38
 70
     1
102
RTVSPost2010Prop39
140
1.0
102
RTVSPost2010PropOp39
 70
     1
102
RTVSPost2010Prop40
 90
        0
102
RTVSPost2010PropOp40
 70
     1
102
RTVSPost2010Prop41ColorIndex
 90
       18
102
RTVSPost2010Prop41ColorRGB
 90
        0
102
RTVSPost2010PropOp41
 70
     1
102
RTVSPost2010Prop42
 90
       50
102
RTVSPost2010PropOp42
 70
     1
102
RTVSPost2010Prop43
 90
        3
102
RTVSPost2010PropOp43
 70
     1
102
RTVSPost2010Prop44ColorIndex
 90
        5
102
RTVSPost2010Prop44ColorRGB
 90
      255
102
RTVSPost2010PropOp44
 70
     1
102
RTVSPost2010Prop45
280
     0
102
RTVSPost2010PropOp45
 70
     1
102
RTVSPost2010Prop46
 90
       50
102
RTVSPost2010PropOp46
 70
     1
102
RTVSPost2010Prop47
 90
       50
102
RTVSPost2010PropOp47
 70
     1
102
RTVSPost2010Prop48
 90
       50
102
RTVSPost2010PropOp48
 70
     1
102
RTVSPost2010Prop49
280
     0
102
RTVSPost2010PropOp49
 70
     1
102
RTVSPost2010Prop50
 90
       50
102
RTVSPost2010PropOp50
 70
     1
102
RTVSPost2010Prop51ColorIndex
 90
      256
102
RTVSPost2010Prop51ColorRGB
 90
-16777216
102
RTVSPost2010PropOp51
 70
     0
102
RTVSPost2010Prop52
140
1.0
102
RTVSPost2010PropOp52
 70
     0
102
RTVSPost2010Prop53
 90
        2
102
RTVSPost2010PropOp53
 70
     1
102
RTVSPost2010Prop54
  1
strokes_ogs.tif
102
RTVSPost2010PropOp54
 70
     1
102
RTVSPost2010Prop55
280
     0
102
RTVSPost2010PropOp55
 70
     1
102
RTVSPost2010Prop56
140
1.0
102
RTVSPost2010PropOp56
 70
     1
102
RTVSPost2010Prop57
140
1.0
102
RTVSPost2010PropOp57
 70
     1
102
RTVSPropertyOp0
 70
     1
102
RTVSPropertyOp1
 70
     1
102
RTVSPropertyOp2
 70
     1
102
RTVSPropertyOp3
 70
     1
102
RTVSPropertyOp4
 70
     1
102
RTVSPropertyOp5
 70
     1
102
RTVSPropertyOp6
 70
     1
102
RTVSPropertyOp7
 70
     1
102
RTVSPropertyOp8
 70
     1
102
RTVSPropertyOp9
 70
     1
102
RTVSPropertyOp10
 70
     1
102
RTVSPropertyOp11
 70
     1
102
RTVSPropertyOp12
 70
     1
102
RTVSPropertyOp13
 70
     1
102
RTVSPropertyOp14
 70
     1
102
RTVSPropertyOp15
 70
     1
102
RTVSPropertyOp16
 70
     1
102
RTVSPropertyOp17
 70
     1
102
RTVSPropertyOp18
 70
     1
102
RTVSPropertyOp19
 70
     1
102
RTVSPropertyOp20
 70
     1
102
RTVSPropertyOp21
 70
     1
102
RTVSPropertyOp22
 70
     1
102
RTVSPropertyOp23
 70
     1
102
RTVSPropertyOp24
 70
     1
102
RTVSPropertyOp25
 70
     1
102
RTVSPropertyOp26
 70
     1
102
RTVSPropertyOp27
 70
     1
102
RTVSPropertyOp28
 70
     1
102
RTVSPropertyOp29
 70
     1
102
RTVSPropertyOp30
 70
     1
102
RTVSPropertyOp31
 70
     1
102
RTVSPropertyOp32
 70
     1
102
RTVSPropertyOp33
 70
     1
102
RTVSPropertyOp34
 70
     1
102
RTVSPropertyOp35
 70
     1
102
RTVSPropertyOp36
 70
     1
102
RTVSPropertyOp37
 70
     1
102
RTVSPropertyOp38
 70
     1
102
RTVSPropertyOp39
 70
     1
102
RTVSPropertyOp40
 70
     1
102
RTVSPropertyOp41
 70
     1
102
RTVSPropertyOp42
 70
     1
102
RTVSPropertyOp43
 70
     1
102
RTVSPropertyOp44
 70
     1
102
RTVSPropertyOp45
 70
     1
102
RTVSPropertyOp46
 70
     1
102
RTVSPropertyOp47
 70
     1
102
RTVSPropertyOp48
 70
     1
102
RTVSPropertyOp49
 70
     1
102
RTVSPropertyOp50
 70
     1
102
RTVSPropertyOp51
 70
     0
102
RTVSPropertyOp52
 70
     0
102
RTVSPropertyOp53
 70
     1
102
RTVSPropertyOp54
 70
     1
102
RTVSPropertyOp55
 70
     1
102
RTVSPropertyOp56
 70
     1
102
RTVSPropertyOp57
 70
     1
102
RTVSPropertyOp58
 70
     1
102
RTVSPropertyOp59
 70
     1
102
RTVSPropertyOp60
 70
     1
102
RTVSPropertyOp61
 70
     1
102
RTVSPropertyOp62
 70
     1
  0
XRECORD
  5
85CB
102
{ACAD_REACTORS
330
85CA
102
}
330
85CA
100
AcDbXrecord
280
     1
102
RTVSPost2010Prop28
280
     0
102
RTVSPost2010PropOp28
 70
     1
102
RTVSPost2010Prop29
280
     1
102
RTVSPost2010PropOp29
 70
     1
102
RTVSPost2010Prop30
280
     1
102
RTVSPost2010PropOp30
 70
     1
102
RTVSPost2010Prop31
280
     0
102
RTVSPost2010PropOp31
 70
     1
102
RTVSPost2010Prop32
280
     0
102
RTVSPost2010PropOp32
 70
     1
102
RTVSPost2010Prop33
280
     0
102
RTVSPost2010PropOp33
 70
     1
102
RTVSPost2010Prop34
280
     0
102
RTVSPost2010PropOp34
 70
     1
102
RTVSPost2010Prop35
280
     0
102
RTVSPost2010PropOp35
 70
     1
102
RTVSPost2010Prop36
280
     0
102
RTVSPost2010PropOp36
 70
     1
102
RTVSPost2010Prop37
 90
       50
102
RTVSPost2010PropOp37
 70
     1
102
RTVSPost2010Prop38
140
0.0
102
RTVSPost2010PropOp38
 70
     1
102
RTVSPost2010Prop39
140
1.0
102
RTVSPost2010PropOp39
 70
     1
102
RTVSPost2010Prop40
 90
        0
102
RTVSPost2010PropOp40
 70
     1
102
RTVSPost2010Prop41ColorIndex
 90
       18
102
RTVSPost2010Prop41ColorRGB
 90
        0
102
RTVSPost2010PropOp41
 70
     1
102
RTVSPost2010Prop42
 90
       50
102
RTVSPost2010PropOp42
 70
     1
102
RTVSPost2010Prop43
 90
        3
102
RTVSPost2010PropOp43
 70
     1
102
RTVSPost2010Prop44ColorIndex
 90
        5
102
RTVSPost2010Prop44ColorRGB
 90
      255
102
RTVSPost2010PropOp44
 70
     1
102
RTVSPost2010Prop45
280
     0
102
RTVSPost2010PropOp45
 70
     1
102
RTVSPost2010Prop46
 90
       50
102
RTVSPost2010PropOp46
 70
     1
102
RTVSPost2010Prop47
 90
       50
102
RTVSPost2010PropOp47
 70
     1
102
RTVSPost2010Prop48
 90
       50
102
RTVSPost2010PropOp48
 70
     1
102
RTVSPost2010Prop49
280
     0
102
RTVSPost2010PropOp49
 70
     1
102
RTVSPost2010Prop50
 90
       50
102
RTVSPost2010PropOp50
 70
     1
102
RTVSPost2010Prop51ColorIndex
 90
      256
102
RTVSPost2010Prop51ColorRGB
 90
-16777216
102
RTVSPost2010PropOp51
 70
     0
102
RTVSPost2010Prop52
140
1.0
102
RTVSPost2010PropOp52
 70
     0
102
RTVSPost2010Prop53
 90
        2
102
RTVSPost2010PropOp53
 70
     1
102
RTVSPost2010Prop54
  1
strokes_ogs.tif
102
RTVSPost2010PropOp54
 70
     1
102
RTVSPost2010Prop55
280
     0
102
RTVSPost2010PropOp55
 70
     1
102
RTVSPost2010Prop56
140
1.0
102
RTVSPost2010PropOp56
 70
     1
102
RTVSPost2010Prop57
140
1.0
102
RTVSPost2010PropOp57
 70
     1
102
RTVSPropertyOp0
 70
     1
102
RTVSPropertyOp1
 70
     1
102
RTVSPropertyOp2
 70
     1
102
RTVSPropertyOp3
 70
     1
102
RTVSPropertyOp4
 70
     1
102
RTVSPropertyOp5
 70
     1
102
RTVSPropertyOp6
 70
     1
102
RTVSPropertyOp7
 70
     1
102
RTVSPropertyOp8
 70
     1
102
RTVSPropertyOp9
 70
     1
102
RTVSPropertyOp10
 70
     1
102
RTVSPropertyOp11
 70
     1
102
RTVSPropertyOp12
 70
     1
102
RTVSPropertyOp13
 70
     1
102
RTVSPropertyOp14
 70
     1
102
RTVSPropertyOp15
 70
     1
102
RTVSPropertyOp16
 70
     1
102
RTVSPropertyOp17
 70
     1
102
RTVSPropertyOp18
 70
     1
102
RTVSPropertyOp19
 70
     1
102
RTVSPropertyOp20
 70
     1
102
RTVSPropertyOp21
 70
     1
102
RTVSPropertyOp22
 70
     1
102
RTVSPropertyOp23
 70
     1
102
RTVSPropertyOp24
 70
     1
102
RTVSPropertyOp25
 70
     1
102
RTVSPropertyOp26
 70
     1
102
RTVSPropertyOp27
 70
     1
102
RTVSPropertyOp28
 70
     1
102
RTVSPropertyOp29
 70
     1
102
RTVSPropertyOp30
 70
     1
102
RTVSPropertyOp31
 70
     1
102
RTVSPropertyOp32
 70
     1
102
RTVSPropertyOp33
 70
     1
102
RTVSPropertyOp34
 70
     1
102
RTVSPropertyOp35
 70
     1
102
RTVSPropertyOp36
 70
     1
102
RTVSPropertyOp37
 70
     1
102
RTVSPropertyOp38
 70
     1
102
RTVSPropertyOp39
 70
     1
102
RTVSPropertyOp40
 70
     1
102
RTVSPropertyOp41
 70
     1
102
RTVSPropertyOp42
 70
     1
102
RTVSPropertyOp43
 70
     1
102
RTVSPropertyOp44
 70
     1
102
RTVSPropertyOp45
 70
     1
102
RTVSPropertyOp46
 70
     1
102
RTVSPropertyOp47
 70
     1
102
RTVSPropertyOp48
 70
     1
102
RTVSPropertyOp49
 70
     1
102
RTVSPropertyOp50
 70
     1
102
RTVSPropertyOp51
 70
     0
102
RTVSPropertyOp52
 70
     0
102
RTVSPropertyOp53
 70
     1
102
RTVSPropertyOp54
 70
     1
102
RTVSPropertyOp55
 70
     1
102
RTVSPropertyOp56
 70
     1
102
RTVSPropertyOp57
 70
     1
102
RTVSPropertyOp58
 70
     1
102
RTVSPropertyOp59
 70
     1
102
RTVSPropertyOp60
 70
     1
102
RTVSPropertyOp61
 70
     1
102
RTVSPropertyOp62
 70
     1
  0
XRECORD
  5
85BD
102
{ACAD_REACTORS
330
85BC
102
}
330
85BC
100
AcDbXrecord
280
     1
102
RTVSPost2010Prop28
280
     0
102
RTVSPost2010PropOp28
 70
     1
102
RTVSPost2010Prop29
280
     1
102
RTVSPost2010PropOp29
 70
     1
102
RTVSPost2010Prop30
280
     1
102
RTVSPost2010PropOp30
 70
     1
102
RTVSPost2010Prop31
280
     0
102
RTVSPost2010PropOp31
 70
     1
102
RTVSPost2010Prop32
280
     0
102
RTVSPost2010PropOp32
 70
     1
102
RTVSPost2010Prop33
280
     0
102
RTVSPost2010PropOp33
 70
     1
102
RTVSPost2010Prop34
280
     0
102
RTVSPost2010PropOp34
 70
     1
102
RTVSPost2010Prop35
280
     0
102
RTVSPost2010PropOp35
 70
     1
102
RTVSPost2010Prop36
280
     0
102
RTVSPost2010PropOp36
 70
     1
102
RTVSPost2010Prop37
 90
       50
102
RTVSPost2010PropOp37
 70
     1
102
RTVSPost2010Prop38
140
0.0
102
RTVSPost2010PropOp38
 70
     1
102
RTVSPost2010Prop39
140
1.0
102
RTVSPost2010PropOp39
 70
     1
102
RTVSPost2010Prop40
 90
        0
102
RTVSPost2010PropOp40
 70
     1
102
RTVSPost2010Prop41ColorIndex
 90
       18
102
RTVSPost2010Prop41ColorRGB
 90
        0
102
RTVSPost2010PropOp41
 70
     1
102
RTVSPost2010Prop42
 90
       50
102
RTVSPost2010PropOp42
 70
     1
102
RTVSPost2010Prop43
 90
        3
102
RTVSPost2010PropOp43
 70
     1
102
RTVSPost2010Prop44ColorIndex
 90
        5
102
RTVSPost2010Prop44ColorRGB
 90
      255
102
RTVSPost2010PropOp44
 70
     1
102
RTVSPost2010Prop45
280
     0
102
RTVSPost2010PropOp45
 70
     1
102
RTVSPost2010Prop46
 90
       50
102
RTVSPost2010PropOp46
 70
     1
102
RTVSPost2010Prop47
 90
       50
102
RTVSPost2010PropOp47
 70
     1
102
RTVSPost2010Prop48
 90
       50
102
RTVSPost2010PropOp48
 70
     1
102
RTVSPost2010Prop49
280
     0
102
RTVSPost2010PropOp49
 70
     1
102
RTVSPost2010Prop50
 90
       50
102
RTVSPost2010PropOp50
 70
     1
102
RTVSPost2010Prop51ColorIndex
 90
      256
102
RTVSPost2010Prop51ColorRGB
 90
-16777216
102
RTVSPost2010PropOp51
 70
     0
102
RTVSPost2010Prop52
140
1.0
102
RTVSPost2010PropOp52
 70
     0
102
RTVSPost2010Prop53
 90
        2
102
RTVSPost2010PropOp53
 70
     1
102
RTVSPost2010Prop54
  1
strokes_ogs.tif
102
RTVSPost2010PropOp54
 70
     1
102
RTVSPost2010Prop55
280
     0
102
RTVSPost2010PropOp55
 70
     1
102
RTVSPost2010Prop56
140
1.0
102
RTVSPost2010PropOp56
 70
     1
102
RTVSPost2010Prop57
140
1.0
102
RTVSPost2010PropOp57
 70
     1
102
RTVSPropertyOp0
 70
     1
102
RTVSPropertyOp1
 70
     1
102
RTVSPropertyOp2
 70
     1
102
RTVSPropertyOp3
 70
     1
102
RTVSPropertyOp4
 70
     1
102
RTVSPropertyOp5
 70
     1
102
RTVSPropertyOp6
 70
     1
102
RTVSPropertyOp7
 70
     1
102
RTVSPropertyOp8
 70
     1
102
RTVSPropertyOp9
 70
     1
102
RTVSPropertyOp10
 70
     1
102
RTVSPropertyOp11
 70
     1
102
RTVSPropertyOp12
 70
     1
102
RTVSPropertyOp13
 70
     1
102
RTVSPropertyOp14
 70
     1
102
RTVSPropertyOp15
 70
     1
102
RTVSPropertyOp16
 70
     1
102
RTVSPropertyOp17
 70
     1
102
RTVSPropertyOp18
 70
     1
102
RTVSPropertyOp19
 70
     1
102
RTVSPropertyOp20
 70
     1
102
RTVSPropertyOp21
 70
     1
102
RTVSPropertyOp22
 70
     1
102
RTVSPropertyOp23
 70
     1
102
RTVSPropertyOp24
 70
     1
102
RTVSPropertyOp25
 70
     1
102
RTVSPropertyOp26
 70
     1
102
RTVSPropertyOp27
 70
     1
102
RTVSPropertyOp28
 70
     1
102
RTVSPropertyOp29
 70
     1
102
RTVSPropertyOp30
 70
     1
102
RTVSPropertyOp31
 70
     1
102
RTVSPropertyOp32
 70
     1
102
RTVSPropertyOp33
 70
     1
102
RTVSPropertyOp34
 70
     1
102
RTVSPropertyOp35
 70
     1
102
RTVSPropertyOp36
 70
     1
102
RTVSPropertyOp37
 70
     1
102
RTVSPropertyOp38
 70
     1
102
RTVSPropertyOp39
 70
     1
102
RTVSPropertyOp40
 70
     1
102
RTVSPropertyOp41
 70
     1
102
RTVSPropertyOp42
 70
     1
102
RTVSPropertyOp43
 70
     1
102
RTVSPropertyOp44
 70
     1
102
RTVSPropertyOp45
 70
     1
102
RTVSPropertyOp46
 70
     1
102
RTVSPropertyOp47
 70
     1
102
RTVSPropertyOp48
 70
     1
102
RTVSPropertyOp49
 70
     1
102
RTVSPropertyOp50
 70
     1
102
RTVSPropertyOp51
 70
     0
102
RTVSPropertyOp52
 70
     0
102
RTVSPropertyOp53
 70
     1
102
RTVSPropertyOp54
 70
     1
102
RTVSPropertyOp55
 70
     1
102
RTVSPropertyOp56
 70
     1
102
RTVSPropertyOp57
 70
     1
102
RTVSPropertyOp58
 70
     1
102
RTVSPropertyOp59
 70
     1
102
RTVSPropertyOp60
 70
     1
102
RTVSPropertyOp61
 70
     1
102
RTVSPropertyOp62
 70
     1
  0
XRECORD
  5
85DD
102
{ACAD_REACTORS
330
85DC
102
}
330
85DC
100
AcDbXrecord
280
     1
102
RTVSPost2010Prop28
280
     0
102
RTVSPost2010PropOp28
 70
     1
102
RTVSPost2010Prop29
280
     1
102
RTVSPost2010PropOp29
 70
     1
102
RTVSPost2010Prop30
280
     1
102
RTVSPost2010PropOp30
 70
     1
102
RTVSPost2010Prop31
280
     0
102
RTVSPost2010PropOp31
 70
     1
102
RTVSPost2010Prop32
280
     0
102
RTVSPost2010PropOp32
 70
     1
102
RTVSPost2010Prop33
280
     0
102
RTVSPost2010PropOp33
 70
     1
102
RTVSPost2010Prop34
280
     0
102
RTVSPost2010PropOp34
 70
     1
102
RTVSPost2010Prop35
280
     0
102
RTVSPost2010PropOp35
 70
     1
102
RTVSPost2010Prop36
280
     0
102
RTVSPost2010PropOp36
 70
     1
102
RTVSPost2010Prop37
 90
       50
102
RTVSPost2010PropOp37
 70
     1
102
RTVSPost2010Prop38
140
0.0
102
RTVSPost2010PropOp38
 70
     1
102
RTVSPost2010Prop39
140
1.0
102
RTVSPost2010PropOp39
 70
     1
102
RTVSPost2010Prop40
 90
        0
102
RTVSPost2010PropOp40
 70
     1
102
RTVSPost2010Prop41ColorIndex
 90
       18
102
RTVSPost2010Prop41ColorRGB
 90
        0
102
RTVSPost2010PropOp41
 70
     1
102
RTVSPost2010Prop42
 90
       50
102
RTVSPost2010PropOp42
 70
     1
102
RTVSPost2010Prop43
 90
        3
102
RTVSPost2010PropOp43
 70
     1
102
RTVSPost2010Prop44ColorIndex
 90
        5
102
RTVSPost2010Prop44ColorRGB
 90
      255
102
RTVSPost2010PropOp44
 70
     1
102
RTVSPost2010Prop45
280
     0
102
RTVSPost2010PropOp45
 70
     1
102
RTVSPost2010Prop46
 90
       50
102
RTVSPost2010PropOp46
 70
     1
102
RTVSPost2010Prop47
 90
       50
102
RTVSPost2010PropOp47
 70
     1
102
RTVSPost2010Prop48
 90
       50
102
RTVSPost2010PropOp48
 70
     1
102
RTVSPost2010Prop49
280
     0
102
RTVSPost2010PropOp49
 70
     1
102
RTVSPost2010Prop50
 90
       50
102
RTVSPost2010PropOp50
 70
     1
102
RTVSPost2010Prop51ColorIndex
 90
      256
102
RTVSPost2010Prop51ColorRGB
 90
-16777216
102
RTVSPost2010PropOp51
 70
     0
102
RTVSPost2010Prop52
140
1.0
102
RTVSPost2010PropOp52
 70
     0
102
RTVSPost2010Prop53
 90
        2
102
RTVSPost2010PropOp53
 70
     1
102
RTVSPost2010Prop54
  1
strokes_ogs.tif
102
RTVSPost2010PropOp54
 70
     1
102
RTVSPost2010Prop55
280
     0
102
RTVSPost2010PropOp55
 70
     1
102
RTVSPost2010Prop56
140
1.0
102
RTVSPost2010PropOp56
 70
     1
102
RTVSPost2010Prop57
140
1.0
102
RTVSPost2010PropOp57
 70
     1
102
RTVSPropertyOp0
 70
     1
102
RTVSPropertyOp1
 70
     1
102
RTVSPropertyOp2
 70
     1
102
RTVSPropertyOp3
 70
     1
102
RTVSPropertyOp4
 70
     1
102
RTVSPropertyOp5
 70
     1
102
RTVSPropertyOp6
 70
     1
102
RTVSPropertyOp7
 70
     1
102
RTVSPropertyOp8
 70
     1
102
RTVSPropertyOp9
 70
     1
102
RTVSPropertyOp10
 70
     1
102
RTVSPropertyOp11
 70
     1
102
RTVSPropertyOp12
 70
     1
102
RTVSPropertyOp13
 70
     1
102
RTVSPropertyOp14
 70
     1
102
RTVSPropertyOp15
 70
     1
102
RTVSPropertyOp16
 70
     1
102
RTVSPropertyOp17
 70
     1
102
RTVSPropertyOp18
 70
     1
102
RTVSPropertyOp19
 70
     1
102
RTVSPropertyOp20
 70
     1
102
RTVSPropertyOp21
 70
     1
102
RTVSPropertyOp22
 70
     1
102
RTVSPropertyOp23
 70
     1
102
RTVSPropertyOp24
 70
     1
102
RTVSPropertyOp25
 70
     1
102
RTVSPropertyOp26
 70
     1
102
RTVSPropertyOp27
 70
     1
102
RTVSPropertyOp28
 70
     1
102
RTVSPropertyOp29
 70
     1
102
RTVSPropertyOp30
 70
     1
102
RTVSPropertyOp31
 70
     1
102
RTVSPropertyOp32
 70
     1
102
RTVSPropertyOp33
 70
     1
102
RTVSPropertyOp34
 70
     1
102
RTVSPropertyOp35
 70
     1
102
RTVSPropertyOp36
 70
     1
102
RTVSPropertyOp37
 70
     1
102
RTVSPropertyOp38
 70
     1
102
RTVSPropertyOp39
 70
     1
102
RTVSPropertyOp40
 70
     1
102
RTVSPropertyOp41
 70
     1
102
RTVSPropertyOp42
 70
     1
102
RTVSPropertyOp43
 70
     1
102
RTVSPropertyOp44
 70
     1
102
RTVSPropertyOp45
 70
     1
102
RTVSPropertyOp46
 70
     1
102
RTVSPropertyOp47
 70
     1
102
RTVSPropertyOp48
 70
     1
102
RTVSPropertyOp49
 70
     1
102
RTVSPropertyOp50
 70
     1
102
RTVSPropertyOp51
 70
     0
102
RTVSPropertyOp52
 70
     0
102
RTVSPropertyOp53
 70
     1
102
RTVSPropertyOp54
 70
     1
102
RTVSPropertyOp55
 70
     1
102
RTVSPropertyOp56
 70
     1
102
RTVSPropertyOp57
 70
     1
102
RTVSPropertyOp58
 70
     1
102
RTVSPropertyOp59
 70
     1
102
RTVSPropertyOp60
 70
     1
102
RTVSPropertyOp61
 70
     1
102
RTVSPropertyOp62
 70
     1
  0
ENDSEC
  0
EOF
